Cradle of Filth

         My favorite song from the album. Probably not 100`orrect but close. There                       are fills here and there which I dont include but good bassists make their own anyway as long as they fit.

         Tuned down 1 step

riff 1
A -------------------------------------------
E ----5t----8t--7t----5t-----8t--7t-----

riff 2
A -----------77------------77-------------1010-------------99------------                                                                         
E ---5555-----5--5555----5----8888---------8--7777-----7---------

riff 3
A ----8---7---5---7-8----------------------------------                                                                                           
E ---------------------------8---7---8---10-5---------

riff 4
A ---8-7t--8-7t--8-7-8-7-8-7-10t----------------------------------
E ----------------------------------------8-7-8-7-8t-10t-5t----------

riff 5
A ---8t--7t---5t--7--8----------------------------------
E --------------------------8t--7t--8--10--5t----------

riff 6
A ---8t--7t---5t--7--8---------------------------5---------
E --------------------------8t--7t--8-7-5--7-8------------

riff 7
A ---7t--6t--------------------------5---------
E -------------8t--7t--8-7-5-7-8------------

riff 8
A -----------------------------------------------------------------
E --0t--1t--3t--1t--0t------1t--3t--5t--3t--1t--0t---------

riff 9
A --9-8-7-6-9-8-7-6-9-8-9-11-12-11-9-8---------------
E -----------------------------------------------------------------

riff 10
A --------------------------------------------------------------
E --8-7-6-5-8-7-6-5-8-7-8-10-11-10-9-8-------------

riff 11
       h
A --3-5-5-65t---3-5-6-5------10t--8t--7t--8t----------
E --------------------------------------------------------------

riff 12
A --0t---8t--7t--5t--------5t--7t----------------
E -----------------------8t------------8t-----------

riff 13
A -----------------------------------
E ---3---------5-----6-------------

riff 14
A -------2----------------------
E --0--------3---2---3-2-----

riff 15
A ---2t----3t----5t------------------------------------------------------------------------------
E ----------------------0t--7t--8t-7t--0t--8t--7t---0t--8t-7t--0t---8t--7t--0t----------

riff 16
A -------------------------------------------------------------
E ---7----------------0--------------7---------------0------

song plays as follows:

riff 1 x 1               4 x 1                   9 x 2                     5 x 1                   15 x 2
    2 x 2               5 x 1                   10 x 2                   4 x 1                     end
    1 x 1               4 x 1                   9 x 2                     5 x 1
    2 x 2               5 x 1                   11 x 3                   4 x 1
    1 x 1               4 x 1                   12 x 4                   6 x 1
    2 x 2               6 x 1                   11 x 4                   14 x 2
    1 x 1               7 x 2                   13 x 8                   15 x 3
    3 x 1               8 x 4                   4 x 1                     16 x 1

transcribed by Devin Dawn   [email protected]


Текст, аккорды и табулатура для песни "Dusk And Her Embrace", исполняет "Cradle Of Filth".
Используемые в песне аккорды можно найти в разделе Как брать аккорды. Аккорды для шестиструнной гитары. Другие песни можно найти на нашем сайте, воспользовавшись алфавитным указателем вверху страницы.


 
Ошибка в тексте? Выделите ошибку и нажмите Ctrl+Enter