Cracker - Movie Star.
Tabbed by Dimitrios [email protected]
  
#------------------------PLEASE NOTE------------------------#
#This file is the author's own work and represents their    #
#interpretation of the song. You may only use this file for #
#private study, scholarship, or research.                   #
#-----------------------------------------------------------#

Band: Cracker
Album: Kerosine Hat
Song: Movie Star

Tabbed/transcribed/figured out until fingers bled by 
Dimitrios Papadimitriou ([email protected] or [email protected]) 
Have any questions? me too

Symbols
b: bend         /: slide up
h: hammer-on    : slide down
p: pull-off     ~: vibrato

Intro (Downstrokes)                    
                                         strumming  
        |Play 3X|                     D      C      G
|---------------------------------|-----------------3------
|---------------------------------|---3------5------3------
|-44444444-5555555-66666666666666-|---2------5------0------
|-55555555-5555555-55555555555555-|---0------5------0------
|---------------------------------|----------3------2------
|---------------------------------|-----------------3------

First Verse 

Well the movie star, Well she crashed her car, but everyone
--------------------------------------------------------------
--------------------------------------------------------------
--4-4-4-4-4-4-4-4-4-4-4-4-4-4-5-5-5-5-5-5-5-5-5-5-6-6-6-6-6-6-
--5-5-5-5-5-5-5-5-5-5-5-5-5-5-5-5-5-5-5-5-5-5-5-5-5-5-5-5-5-5-
--------------------------------------------------------------
--------------------------------------------------------------

said she was beautiful even without her head. Everyone said 
--------------------------------------------------------------
--------------------------------3--3--3--3--3-----5--5--5--5--
6-6-6-6-6-6-6-6-6-6-6-6-6-6-----2--2--2--2--2-----5--5--5--5--
5-5-5-5-5-5-5-5-5-5-5-5-5-5--0--0--0--0--0--0-----5--5--5--5--
-----------------------------------------------3--3--3--3--3--
--------------------------------------------------------------

she was dangerous.
------------3--3--3--3--3--3--3--3--3---|
5--5--5-----3--3--3--3--3--3--3--3--3---|
5--5--5-----0--0--0--0--0--0--0--0--0---|
5--5--5-----0--0--0--0--0--0--0--0--0---|
3--3--3-----2--2--2--2--2--2--2--2--2---|
---------3--3--3--3--3--3--3--3--3--3---|

2nd verse
Well the chief of police 
kept the crime off the streets
Deep in his heart, 
we all knew he felt differently,
We all knew he was an anarchist

Chorus

Well I............. I'd like to devour..... you.......
--------------------------------------------3-3-3-3-3-3
2h3-3-3-2h3-3-3-2h3-3-3-2h3-3-3-5-5-5-5-5-5-3-3-3-3-3-3
2---2-2-2---2-2-----2-2-2---2-2-5-5-5-5-5-5-0-0-0-0-0-0
0---0-0-0---0-0-----0-0-0---0-0-5-5-5-5-5-5-0-0-0-0-0-0
--------------------------------3-3-3-3-3-3-2-2-2-2-2-2
--------------------------------------------3-3-3-3-3-3

But you..........you'd probably devour......me.........
--------------------------------------------3-3-3-3-3-3
2h3-3-3-2h3-3-3-2h3-3-3-2h3-3-3-5-5-5-5-5-5-3-3-3-3-3-3
2---2-2-2---2-2-----2-2-2---2-2-5-5-5-5-5-5-0-0-0-0-0-0
0---0-0-0---0-0-----0-0-0---0-0-5-5-5-5-5-5-0-0-0-0-0-0
--------------------------------3-3-3-3-3-3-2-2-2-2-2-2
--------------------------------------------3-3-3-3-3-3

3rd verse
For your golden wheat
For your oat brand head
Deep in my heart
Girl you're a beautiful animal
I'll put a tag on your ear

Here we go!!!!!!!!!!!!!!!!!!!!!!!!!!!!!!!!!!!

Solo w/ backing rhythm being 
the verse line played twice
--------------------------------------------------------------
--------------------------------------------------------------
-2b-2b-2-0-0-0---0-0-00-2-0-0-0---2p0-0-4p0-0-5p0-7p0-0-5p0-0-
---------------2----------------------------------------------
--------------------------------------------------------------
--------------------------------------------------------------

--------------------------------------------------------------
--------------------------------------------------------------
4p0-2p0-0-4p0-0-5p0-0-4p0-0-2p0-0-5p0-2p0---------------------
------------------------------------------5~~--0-0-0-2-3-2-0--
-------------------------------------------------------------3
--------------------------------------------------------------

--------------------------------------------------------------
------------------------------151515-151515-151515-151515-1515
------0----0----0----0------------14b----14b----14b----14b----
--------------------------------------------------------------
--3-2---2----2----2------/15---------------------------------
--------------------------------------------------------------

--------------------------------------------------------------
15-151515------------------------------------------15----15---
14b----14b-14-12-12-1212---12-12-121214-12-12-1212-14b---14b--
------------------------14------------------------------------
--------------------------------------------------------------
--------------------------------------------------------------

--------------------------------------------------------------
15-15---------------------------------------------------------
14-12-1414-12~-------------------------------12~~~~-12~~~~-12~
--------------12-12-12-14-15-14-12----------------------------
-----------------------------------15--15-14~~~~-14~~~~-14~~~~
--------------------------------------------------------------

------------------|
------------------|
~~--12~~~~-12----|
------------------|
-14~~~~-14(14)---|
------------------|

Verse 1
Verse 2
Chorus played twice
Intro riff played 8x 
End w/ a perty little G 

:: Ultimate Guitar Archive :: 
http://www.ultimate-guitar.com 





Текст, аккорды и табулатура для песни "Movie Star", исполняет "Cracker".
Используемые в песне аккорды можно найти в разделе Как брать аккорды. Аккорды для шестиструнной гитары. Другие песни можно найти на нашем сайте, воспользовавшись алфавитным указателем вверху страницы.


 
Ошибка в тексте? Выделите ошибку и нажмите Ctrl+Enter