Band:CPM 22
Song:Tarde De Outubro

INTRO:
G---------------------------------|---------------------------------|
D---------------------------------|---------------------------------|
A---------------------------------|---------------------------------|
E-guitar--------------------------|-guitar-----------------22222222-|

VERSE:
G---------------------------------|--------------------------------|
D---------------------------------|--------------------------------|
A-2222222-------------------------|-2222222------------------------|
E--------555555554444444422022222-|--------555555554444444442222222|

CHORUS:2x
G--------------------------|---------------------------|
D--------------------------|---------------------------|
A-2222222222---------------|-22222222222---------------|
E-----------444444555555---|------------22222255442200-|

BRIDGE:
G-------------------------------------------|-------------------------------------------|
D-------------------------------------------|-------------------------------------------|
A-22222222h55p2-----------------------------|-22222222h55p2-----------------------------|
E--------------5555555h77p54444444022220020-|--------------5555555h77p54444444022222222-|

SLOW PART BEFORE VERSE AND VERSE
G---------------------------------------------------------------|
D-----9---------------------------------------------------------|
A-2-7-----7-9---7-9--------797p22222222-------------------------|
E-------5-----4-----2222222------------555555554444444422222222-|

CHORUS:2x
G--------------------|-------------------------|
D--------------------|-------------------------|
A-22222222-----------|-22222222----------------|
E---------4444455555-|---------222222255442200-|

ENDING:
G------------------|------------------|----|
D------------------|------------------|----|
A-7h999999---------|-7h999999---------|-22-|
E---------55442200-|---------55442200-|----|

Band:CPM 22
Song:Tarde De Outubro

INTRO:
G---------------------------------|---------------------------------|
D---------------------------------|---------------------------------|
A---------------------------------|---------------------------------|
E-guitar--------------------------|-guitar-----------------22222222-|

VERSE:
G---------------------------------|--------------------------------|
D---------------------------------|--------------------------------|
A-2222222-------------------------|-2222222------------------------|
E--------555555554444444422022222-|--------555555554444444442222222|

CHORUS:2x
G--------------------------|---------------------------|
D--------------------------|---------------------------|
A-2222222222---------------|-22222222222---------------|
E-----------444444555555---|------------22222255442200-|

BRIDGE:
G-------------------------------------------|-------------------------------------------|
D-------------------------------------------|-------------------------------------------|
A-22222222h55p2-----------------------------|-22222222h55p2-----------------------------|
E--------------5555555h77p54444444022220020-|--------------5555555h77p54444444022222222-|

SLOW PART BEFORE VERSE AND VERSE
G---------------------------------------------------------------|
D-----9---------------------------------------------------------|
A-2-7-----7-9---7-9--------797p22222222-------------------------|
E-------5-----4-----2222222------------555555554444444422222222-|

CHORUS:2x
G--------------------|-------------------------|
D--------------------|-------------------------|
A-22222222-----------|-22222222----------------|
E---------4444455555-|---------222222255442200-|

ENDING:
G------------------|------------------|----|
D------------------|------------------|----|
A-7h999999---------|-7h999999---------|-22-|
E---------55442200-|---------55442200-|----|


Текст, аккорды и табулатура для песни "Tarde De Outubro", исполняет "Cpm 22".
Используемые в песне аккорды можно найти в разделе Как брать аккорды. Аккорды для шестиструнной гитары. Другие песни можно найти на нашем сайте, воспользовавшись алфавитным указателем вверху страницы.


 
Ошибка в тексте? Выделите ошибку и нажмите Ctrl+Enter