HEAVY METAL

Instrumental :
|-------------|----------------|--------------|---------|
|----------5-5|-7-7---7-8-8----|----------5-5-|-7-7---7-|
|2-2----------|------7-------9-|-2-2----------|------7--|
|-----2-3-----|--------------- |----2-3-------|---------|

Couplet
|-----------|------------|-------------|-------------|
|--------5-5|-7-7--7-8-8-|----------5-5|-7-7--7-8-8--|
|2-2--------|-----7-----9|-2-2---------|-----7------9|
|----2-3----|------------|-----2-3-----|-------------|

|-----------|-------------|-------------7|-6---------|
|-9---9-4--4|-7--7------7-|-9--9--4--4---|---4-------|
|10-10--5--5|-0--0----9---|10-10--5--5---|------4----|
|-----------|--------7----|--------------|-----------|


|-------------7|-6----------|
|-9--9--4--4---|---4--------|
|10-10--5--5---|------4-2---|
|--------------|---------2-0|

|-------------|-------------|-------------|-----------|
|-------------|-------------|-------------|-----------|
|----------4-5|-7-5-4-------|----------4-5|-7-5-4-----|
|0-0-2-4-5----|--------5----|0-0-2-4-5----|--------5-5|

|-----------|-----------|-------------------------|
|-----------|-----------|-------------------------|
|5-5------2-|5-5--------|--------------9-9-9-9-9-9|
|----5-3-3--|----5-3-3-3|-2-2-2-2-2-2-------------|

Refrain :
|-------------|-------------|--------------|--------|
|-------------|-------------|--------------|--------|
|-------------|-------------|--------------|7-7-7-8-|
|-------------|-------------|--------------|--------|

|-----------|-------------|------------|---------|-----------|
|9----------|--------7-7-8|9-----------|---------|-----------|
|--9-9-8-7--|---7-5-------|--9-9-8-7---|---------|-----------|
|----------7|-5-----------|-----------7|-3-3--3-3|-0-0--0-0--|


Текст, аккорды и табулатура для песни "Heavy Metal", исполняет "Cowboys Fringants".
Используемые в песне аккорды можно найти в разделе Как брать аккорды. Аккорды для шестиструнной гитары. Другие песни можно найти на нашем сайте, воспользовавшись алфавитным указателем вверху страницы.


Слушать онлайн Heavy metal


Les Cowboys FringantsHeavy metal на Яндекс.Музыке


 
Ошибка в тексте? Выделите ошибку и нажмите Ctrl+Enter