Song:   Caught In The Sun
By:     Course of Nature
Tab By: Stroker ([email protected])
Thanks to the following for giving me a start on this song:
	Rory Dobis - aol s/n - BillabongNJ; email - [email protected]
	Mike Subhakul - email - [email protected]

Tuning low to high (Db Ab Db Gb Bb Eb)

Intro/Verse (listen to the song for strumming patterns)
-0-------0-------0--0-----0--0------
-0-------0-------0--0-----0--0------
-2-------2-------6--X-----6--X------
-0-------0-------5--7-----5--7------
-2-------0-------5--5-----5--5------
-----------------5--5-----5--5------

Chorus (once again, listen to the cd for exact strumming patterns)
------------------------------------------------
------------------------------------------------
------------------------------------------------
-0-----7-----5------9-9-9-9------7-7-7---7-7----
-0-----7-----5------9-9-9-9------7-7-7---7-7----
-0-----7-----5------9-9-9-9------7-7-7---7-7----


Bridge 1
---------------------------------------------------------------------
---------------------------------------------------------------------
---------------------------------------------------------------------
-8-8-8-8-8-8-8-8--10-10-10-10-10-10-10-10--10-12-12-12---10-12-12-12-
-8-8-8-8-8-8-8-8--10-10-10-10-10-10-10-10--10-12-12-12---10-12-12-12-
-8-8-8-8-8-8-8-8--10-10-10-10-10-10-10-10--10-12-12-12---10-12-12-12-

----------------------------------------------------
----------------------------------------------------
----------------------------------------------------
-10-12-12-12-10-12-12-12---10-12-12-12--10-12-12-12-
-10-12-12-12-10-12-12-12---10-12-12-12--10-12-12-12-
-10-12-12-12-10-12-12-12---10-12-12-12--10-12-12-12-

---------------------------------------------------------------------
---------------------------------------------------------------------
---------------------------------------------------------------------
-8-8-8-8-8-8-8-8--10-10-10-10-10-10-10-10--10-12-12-12---10-12-12-12-
-8-8-8-8-8-8-8-8--10-10-10-10-10-10-10-10--10-12-12-12---10-12-12-12-
-8-8-8-8-8-8-8-8--10-10-10-10-10-10-10-10--10-12-12-12---10-12-12-12-


--------------------------------------------
--------------------------------------------
--------------------------------------------
-10-12-12-12-10-12-12-12---10-12-12-12--12-8
-10-12-12-12-10-12-12-12---10-12-12-12--12-8
-10-12-12-12-10-12-12-12---10-12-12-12--12-8

Solo (verses played behind it, listen to cd for exact timing)

----------17--------------------------------------------
--14--15------15--14--15-----14--15--17--15--14--15-----
-----------------------------------------------------14-
--------------------------------------------------------
--------------------------------------------------------
--------------------------------------------------------

--15-p14-p12-10-h12-p10------10--12--10-
----------------------------------------
------------------------10--------------
----------------------------------------
----------------------------------------
----------------------------------------

----------19--17--14-h15-p14-h15-p14------17--15--14-h15-p14--/17-
--14--15------------------------------15--------------------------
------------------------------------------------------------------
------------------------------------------------------------------
------------------------------------------------------------------
------------------------------------------------------------------

Bridge 2
---------------------------------
---------------------------------
---------------------------------
-3-3-3-5-5-5-7-7-7-9-9-9-7-7-9-9-
-1-1-1-3-3-3-5-5-5-7-7-7-5-5-7-7-
---------------------------------

Played in this order:
Intro/Verse x6
Chorus 	    x2
Intro/Verse x5
Chorus      x2
Bridge 1
Solo (Intro/Verse played in background)
Bridge 2
Chorus      x4

The last chord of the song is the last chord of the verse.


Текст, аккорды и табулатура для песни "Caught In The Sun", исполняет "Course Of Nature".
Используемые в песне аккорды можно найти в разделе Как брать аккорды. Аккорды для шестиструнной гитары. Другие песни можно найти на нашем сайте, воспользовавшись алфавитным указателем вверху страницы.


Слушать онлайн Caught In The Sun


Course Of NatureCaught In The Sun на Яндекс.Музыке


 
Ошибка в тексте? Выделите ошибку и нажмите Ctrl+Enter