Person: Shaun Richard

song: Hangin' Around

artist: Counting Crows

tab: *this is the authors interpretation of the song please* *         
don't sue me i have know money             *

Band: Counting Crows
Song: Hangin'Around
Tabbed By: Shaun Richard

**{you may use this but if you take it atleast go to one of **the
sponsors on Freshtabs, it will only help the future **of the site, that
we all know and love}

I know the solo is way off but hey i tried my best 
if you got a problem oh well if you know how to fix it let me know.
|---------------------------------------------------------|
|---------------------------------------------------------|
|---------------------------------------------------------|
|---------------------------------------------------------|
|---------3-5-5/7--5--3-2-3-5-----------------------------|
|-0-1-3/5-------------------------------------------------|

|---------------------------------------------------------|
|---------------------------------------------------------|
|---------------------------------------------------------|
|---------------------------------------------------------|
|---------3-5-5/7--5--5-3-5^7^53-5^7^53-----------------|
|-0-1-3/5------------------h-p-----h-p--------------------|

repeated, in variations throughout the song, probably isn't correct but
close
light distortion
|-------7---7/8----7--------------------------------------|
|---/8----8-----8-----8-----------------------------------|
|---------------------------------------------------------|
|---------------------------------------------------------|
|---------------------------------------------------------|
|---------------------------------------------------------|

|---------------------------------------------------------|
|---------------------------------------------------------|
|---------------------------------------------------------|
|---------------------------------------------------------|
|---------3-5-5/7--5--3-2-3-5-----------------------------|
|-0-1-3/5-------------------------------------------------|
                       
|---------------------------------------------------------|
|---------------------------------------------------------|
|----------------------p.m.-------------------------------|
|------------------------------------5--------------------|
|---------3-5-5/7--5--5^7^5-3-5-5/7-----------------------|
|-0-1-3/5--------------h-p--------------------------------|

Solo
|------------------------------------------------------------|
|------------------------------------------------------------|
|----------------------p.m.----------------p.m.-5----p.m.-5--|
|------------------------------------5--5^7-77---7-5^7 7-5-7-|
|---------3-5-5/7--5--5^7^5-3-5-5/7--------------------------|
|-0-1-3/5--------------h-p-----------------------------------|

|----------------------------- 8-----8------8-------------|
|------------8------------8^10---10-----10--10------------|
|--p.m.7/9-7----7/9/10------------------------------------|
|--7-7----------------------------------------------------|
|---------------------------------------------------------|
|---------------------------------------------------------|

|---------------------------------------------------------|
|---------------------------------------------------------|
|---------------------------------------------------------|
|---------------------------------------------------------|
|---------3-5-5/7--5--3-2-3-5-----------------------------|
|-0-1-3/5-------------------------------------------------|

|---------------------------------------------------------|
|---------------------------------------------------------|
|---------------------------------------------------------|
|---------------------------------------------------------|
|---------3-5-5/7--5--5-3-5^7^53-5^7^53-----------------|
|-0-1-3/5------------------h-p-----h-p--------------------|

|---------------------------------------------------------|
|---------------------------------------------------------|
|---------------------------------------------------------|
|---------------------------------------------------------|
|---------3-5-5/7--5--3-2-3-5-----------------------------|
|-0-1-3/5-------------------------------------------------|

|---------------------------------------------------------|
|---------------------------------------------------------|
|---------------------------------------------------------|
|---------------------------------------------------------|
|---------3-5-5/7--5--5-3-5^7^53-5^7^53-----------------|
|-0-1-3/5------------------h-p-----h-p--------------------|

|---------------------------------------------------------|
|---------------------------------------------------------|
|---------------------------------------------------------|
|----------------------------5----------------------------|
|---------3-5-5/7--5-5-3^5/7---7-5-3^5/7------------------|
|-0-1-3/5---------------h-----------h---------------------|


|---------------------------------------------------------|
|---------------------------------------------------------|
|---------------------------------------------------------|
|---------------------------------------------------------|
|---------3-5-5/7--5--------------------------------------|
|-0-1-3/5-------------------------------------------------|




Текст, аккорды и табулатура для песни "Hangin Around", исполняет "Counting Crows".
Используемые в песне аккорды можно найти в разделе Как брать аккорды. Аккорды для шестиструнной гитары. Другие песни можно найти на нашем сайте, воспользовавшись алфавитным указателем вверху страницы.


Слушать онлайн Hanginaround


Counting CrowsHanginaround на Яндекс.Музыке


 
Ошибка в тексте? Выделите ошибку и нажмите Ctrl+Enter