Very Relaxing song, so enjoy it 

This is the main riff. it is played almost the whole song.

e-----------2-----------------4--------||
B-----0---0---0---0-----0---0---0---0--||
G---1---1-------1-----1---1-------1----||
D--------------------------------------||
A---------------------0----------------||
E---4----------------------------------||

e----------0---------0-------0---------||
B----0---0---0---0-----0---0---0---0---||
G--1---1-------1---------1-------1-----||
D--------------------------------------||
A--------------------0-------0---------||
E--0-----------------------------------||
 

OR

e-------------------|---------5-------|-----------------|-1-------1-------||
B-----------8-------|-----------------|---------6-------|---1---1---1---1-||
G-----5---5---5---5-|---5---5---5---5-|---5---5---5---5-|-----2-------2---||
D---7---7-------7---|-7---7-------7---|-7---7-------7---|-----------------||
A---0---------------|-----------------|-8---------------|-1---------------||
E-------------------|-6---------------|-----------------|-----------------||


Play this at the end of any of the two tabs

e---1-------1-------|-1-------1-------||
B-----1---1---1---1-|---1---1---1---1-||
G-------2-------2---|-----2-------2---||
D-------------------|-----------------||
A-------------------|-1---------------||
E---1---------------|-----------------||


End on

e---x---------------||
B---1---------------||
G---2---------------||
D---x---------------||
A---x---------------||
E---1---------------||

X= don't play


Текст, аккорды и табулатура для песни "Colorblind", исполняет "Counting Crows".
Используемые в песне аккорды можно найти в разделе Как брать аккорды. Аккорды для шестиструнной гитары. Другие песни можно найти на нашем сайте, воспользовавшись алфавитным указателем вверху страницы.


Слушать онлайн Colorblind


The Counting CrowsColorblind на Яндекс.Музыке


 
Ошибка в тексте? Выделите ошибку и нажмите Ctrl+Enter