Big Yellow Taxi
By: The Counting Crows
Tabbed by Jon Micetic

Tuning
G-B-D-G-D-G capo on first fret

Intro/Verse
They paved paradise to put up a parking lot
-0---0-----------------0----------------0--
-0---0-----------------0----------------0--
-0---0-----------------2----------------0--
-0---0-----------------0----------------0--
-0---1-----------------3----------------0--
-0---0-----------------0----------------0--

With a pink hotel of boots you get a swingin’ hot spot
-------0-------------0------------------------0--
-------0-------------0------------------------0--
-------0-------------2------------------------0--
-------0-------------0------------------------0--
-------1-------------3------------------------0--
-------0-------------0------------------------0--

Chorus
Don’t it always seem to go that you 
-0-----------------0--------------
-0-----------------0--------------
-7-----------------7--------------
-0-----------------0--------------
-8-----------------8--------------
-0-----------------0--------------

don’t know what you got till its gone
0-----------------------------------
0-----------------------------------
5-----------------------------------
0-----------------------------------
5-----------------------------------
0-----------------------------------

they paved paradise and put up a parking lot
-0---0------------------0----------------0--
-0---0------------------0----------------0--
-0---0------------------2----------------0--
-0---0------------------0----------------0--
-0---1------------------3----------------0--
-0---0------------------0----------------0—
They took all the trees......

Chorus

Hey farmer, farmer put away.......

Chorus

Jam
-----------------------------------0-0-0-0-0-0-0--
-----------------------------------0-0-0-0-0-0-0--
---------0-0-0-------0-0-0-2p0-2/4-7-7-7-7-5-4-4--
-0-0-0-2-------2p0-2------------------------------
--------------------------------------------------
--------------------------------------------------

                          
------------------------------------+5-----------
------------------------------------+5----0h2p0--
---------0-0-0-------0-0-0-2p0-0----+5-----------
-0-0-0-2-------2p0-2----------------+5-----------
------------------------------------+5-----------
------------------------------------+5-----------

------------------------------------0-0-0-0-0-0-0--
------------------------------------0-0-0-0-0-0-0--
----------0-0-0-------0-0-0-2p0-2/4-7-7-7-7-5-4-4--
-0-0-0-2--------2p0-2------------------------------
---------------------------------------------------
---------------------------------------------------
	   
----------------
----------------
---0-4---0-4----
-2-----0-----0--
----------------
----------------

Listen late last night I heard the screen door sway
----------------------------------------------0-----+5--
----------------------------------------------0-----+5--
----------------------------------------------0-----+5--
----------------------------------------------0-----+5--
----------------------------------------------0-----+5--
----------------------------------------------0-----+5--

And a big yellow taxi took my girl away
------0---------------0-------------0--
------0---------------0-------------0--
------0---------------2-------------0--
------0---------------0-------------0--
------1---------------3-------------0--
------0---------------0-------------0--

Chorus X 2

Ending
--0-0-0-0---0-0-0-0---0-0-0-0---0-0-0-0---0-0-0-0--
--0-0-0-0---0-0-0-0---0-0-0-0---0-0-0-0---0-0-0-0--
--0-0-0-5---5-5-5-0---0-0-0-5---5-5-5-0---0-0-0-5--
--0-0-0-0---0-0-0-0---0-0-0-0---0-0-0-0---0-0-0-0--
--0-0-0-5---5-5-5-0---0-0-0-5---5-5-5-0---0-0-0-5--
--0-0-0-0---0-0-0-0---0-0-0-0---0-0-0-0---0-0-0-0--

--0-0-0-0---0-0-0-0---0-0-0-0---0-0-0-0--
--0-0-0-0---0-0-0-0---0-0-0-0---0-0-0-0--
--5-5-5-0---5-5-5-0---5-5-5-7---7-7-0-0--
--0-0-0-0---0-0-0-0---0-0-0-0---0-0-0-0--
--5-5-5-0---5-5-5-0---5-5-5-7---7-7-0-0--
--0-0-0-0---0-0-0-0---0-0-0-0---0-0-0-0--

-0-0-0-0-0-0---0---0-0-0-0-0-0---0--
-0-0-0-0-0-0---0---0-0-0-0-0-0---0--
-2-2-2-2-0-0---0---2-2-2-2-0-0---0--
-0-0-0-0-0-2---2---0-0-0-0-0-0---0--
-5-5-5-5-0-1---1---5-5-5-5-0-0---0--
-0-0-0-0-0-0---0---0-0-0-0-0-0---0—-

/  slide up
h  hammer-on
p  pull-off
+  harmonic


Текст, аккорды и табулатура для песни "Big Yellow Taxi", исполняет "Counting Crows".
Используемые в песне аккорды можно найти в разделе Как брать аккорды. Аккорды для шестиструнной гитары. Другие песни можно найти на нашем сайте, воспользовавшись алфавитным указателем вверху страницы.


Слушать онлайн Big Yellow Taxi In the Style of Counting Crows


Sunfly KaraokeBig Yellow Taxi In the Style of Counting Crows на Яндекс.Музыке


 
Ошибка в тексте? Выделите ошибку и нажмите Ctrl+Enter