--------------------------------------------------------------------------------
--------------------------------------------------------------------------------
--------------------------CORROSION OF CONFORMITY--------------------------------
------------------------------CLEAN MY WOUNDS------------------------------------
---------------------------------------------------------------------------------

This is a pretty cool song and I'm surprised no one has transcribed it so here is my try at it. 

Tune all guitars down half step. 6=D     3=F
				 5=G     2=A 
				 4=C     1=D

---------------------------------------------------------------------------------
---------------------------------GUITAR------------------------------------------
---------------------------------------------------------------------------------

INTRO  PM-------------------------------------|
F.-----------------------------------------------|
A.-----------------------------------------------|
D.-----------------------------------------------|
C.--7--------------------------------------------|
G.--7--------------------------------------------|
D.--5---8--8--8--8----3--3--3--3----0--3--3--3---|
   
    PM-----------------------------|
F.----------------------------------------------|
A.----------------------------------------------|
D.----------------------------------------------|
C.--7-------------------------------------------|
G.--7-------------------------------------------|
D.--5---8--8--8--8---10--10--10--10-------------|

CHORUS
  Knock it down.....
F.----------------------------------------------|
A.----------------------------------------------|
D.----------------------------------------------|
C.----------------------------------------------|
G.--7---10---10---10---5---5---5-------5-------|
D.--5---8----8----8----3---3---3---0---3---0---|


GUITAR SOLO
								    
F.-----------------------------------------------------------------|
A.-----------------------------------------------------------------|
D.--9---9-h--10p--9----9-h--10p--9---7--7---5/-9---9---9---10--10b-|
C.--10--10h--12p--10---10h--12p--10--9--9---7/-10--10--10--12--12b-|
G.-----------------------------------------------------------------|
D.-----------------------------------------------------------------|

F.---------------------------10b--8--8-b--7---------------------|
A.---------------------------10b--8--10b--8--10--8--------------|
D.--10p--9-h--7---7h--9p--7-----------------9---7--9--5h--7p--5-|
C.--12p--10h--12--7h--9p--7------------------------9--5h--7p--5-|
G.--------------------------------------------------------------|
D.--------------------------------------------------------------|

F.---------------------------------------------------------------|
A.---------------------------------------------------------------|
D.--9---9---10--12---12h--14p--12--12-11-------2h-5--2--4h--5/-7|
C.--10--10--12--10---10h--12p--10--9--7---2h-5------------------|
G.---------------------------------------------------------------|
D.---------------------------------------------------------------|

F.----------------------------------------------------------------|
A.-------------------------8----------------------------5h-6p-5---|
D.--5h--7p--5-/4--/14-5-----4-------------------5--7-----------7|
C.-------------------------------7--5--4---5h--7------------------|
G.----------------------------------------------------------------|
D.----------------------------------------------------------------|

F.-----------------------------------------------------------------|
A.--5h--6h--8p--5h--6--8--8--6--5--------5--8--5-----8p-5-----5h-8p|
D.---------------------------------7--7b----------8--------8-------|
C.-----------------------------------------------------------------|
G.-----------------------------------------------------------------|
D.-----------------------------------------------------------------|

F.------------------------------------------5p-0h-5p-0h-5p-0h-5p--5--8--|
A.--5-----8--5-----5---8--5---5h-8p-5h-8p-5h---------------------8b-----|
D.-----8--------8-----------8-------------------------------------------|
C.----------------------------------------------------------------------|
G.----------------------------------------------------------------------|
D.----------------------------------------------------------------------|

F.--5-------------5b-----|
A.-----8--5--5----8b-----|
D.-----------------------|
C.-----------------------|
G.-----------------------|
D.-----------------------|


--------------------------------------------------------------------------------
---------------------------------BASS-------------------------------------------
--------------------------------------------------------------------------------
INTRO
D.----------------------------------------------------|
G.----------------------------------------------------|
C.--12-----------------------------------------------|
F.---------5--8--8--8--8---3--3--3--3---0--3--3--3----|

D.----------------------------------------------------|
G.----------------------------------------------------|
C.----------------------------------------------------|
F.--5--8--8--8--8---10--10--10--10--------------------|


CHORUS
D.------------------------------------------------------------|
G.------------------------------------------------------------|
C.----4--5--7--3--------------------5--5------4--5--7--3--3---|
F.--5-------------0--1--3--3--3--0--------5-------------------|

D.----------------------------|
G.----------------------------|
C.--5--5--3h-5--5--3----------|
F.--------------------5---0---|


AND THAT'S ALL SHE WROTE!!!!


Текст, аккорды и табулатура для песни "Clean My Wounds", исполняет "Corrosion Of Conformity".
Используемые в песне аккорды можно найти в разделе Как брать аккорды. Аккорды для шестиструнной гитары. Другие песни можно найти на нашем сайте, воспользовавшись алфавитным указателем вверху страницы.


 
Ошибка в тексте? Выделите ошибку и нажмите Ctrl+Enter