LIEZAH
  (THE CORAL)

-----------------------------------------------------------------------------
  -AQUI OS PONGO OTRA CANCION DE THE CORAL, PARA MI SIN DUDA LA MEJOR DE
MAGIC & MEDICINE. AHI VA:
  -HERE IT IS, ANOTHER SONG OF THE CORAL, PROBABLY THE BEST OF THE ALBUM
MAGIC & MEDICINE. HERE GOES:
-----------------------------------------------------------------------------
  s: slide
-----------------------------------------------------------------------------
-INTRO:

GUITARRA 1(GUITAR 1)
    G              Am            G

GUITARRA (GUITAR 2):FINGERPICKING 
E-----2----------------------------2----------5---7---5---3---------
B---------0---0---------1--------------0---0------------------------
G-------0---0---------2---2----------0---0--------------------------
D-------------------2-------2---------------------------------------
A-----------------0---------------------------3---5---3---2---------
E---3----------------------------3----------------------------------

-----------------------------------------------------------------------------
VERSO(VERSE):

GUITAR1:
           G       Am                G
           I had a girl her name was Liezah

GUITAR 2:FINGERPICKING
E------------------5-------7-----5---3------------3------------------
B----------0---0---------------------------0---0-------0---0---------
G------------0---------------------------0---0-------0---0-----------
D--------------------------------------------------------------------
A------------------3-------5-----3---2------------2------------------
E---------3----------------------------------------------------------

GUITAR1:  
           G       Am         G
           She had only one desire

GUITAR 2:FINGERPICKING
E------------------5----7---5--3-------------3-----------------------
B----------0---0----------------------0---0-------0---0--------------
G------------0----------------------0---0-------0---0----------------
D--------------------------------------------------------------------
A------------------3----5---3--2-------------2-----------------------
E---------3----------------------------------------------------------

-----------------------------------------------------------------------------
PRE-ESTRIBILLO(PRE-CHORUS):

GUITAR1: 
           Am          C               D
           to walk the cobbled streets alone

GUITAR 2:FINGERPICKING
E---------------------------------------------2------7--5--7--3-------
B-------------1----------------1------------------3-------------------
G----------2-------2-------0---------0------2---2---------------------
D-----------------------------------------0---------------------------
A-------0---------------3----------------------------5--3--5--2-------
E---------------------------------------------------------------------

GUITAR1:
           G       D       C     D    G            Am
           Heading aaaaaanywhere but  home

GUITAR 2:FINGERPICKING
E--------------------------3-----7----3-------------------------------
B----------0--------3--3------------------0---0--0--------1-----------
G-------0-----0----2--2---------------------0-----------2---2---------
D-----------------0-----------------------------------2-------2-------
A--------------------------3-----5----2-------------0-----------------
E---------------------------------------------------------------------

-----------------------------------------------------------------------------

 -VERSO 2(VERSE 2)
 -SE TOCAN LOS MISMOS ACORDES CON LA PRIMERA GUITARRA Y LOS MISMOS PUNTEOS CON LA
SEGUNDA, PERO CON ESTA LETRA:
 -YOU HAVE TO PLAY THE SAME CHORDS WITH THE FIRST GUITAR AND THE SAME RIFFS WITH
THE SECOND, BUT WITH THAT LYRICS:


  VERSO:           With Crowley as her close companion    
 (VERSE):          His diaries went hand in hand with
       
 PRE ESTRIBILLO:   All the men that she has known
(PRE-CHORUS):      Leaves their silver but keeps their gold 


  VERSO:           So lawyers, doctors please beware    
 (VERSE):          Of that girl with wavy hair
       
 PRE ESTRIBILLO:   She will cut you down to size
(PRE-CHORUS):      Reveal the truth behind your disguise    

-----------------------------------------------------------------------------

 -ESTRIBILLO(CHORUS):

 
 GUITAR1: 
           G      Am              Bm      Am
           Leizah,   just passed  by her

GUITAR 2:FINGERPICKING
E----------3-----3s5------5 slide 7-------7s5------------------------
B--------------------------------------------------------------------
G--------------------------------------------------------------------
D--------------------------------------------------------------------
A----------2-----2s3------3 slide 5-------5s3------------------------
E--------------------------------------------------------------------

           
                       G         Am        Bm     Am
            Now your   standing      empty handed

GUITAR 2:FINGERPICKING
E--------------5 slide 3--------3s5- ---5s7-------7s5----------------
B--------------------------------------------------------------------
G--------------------------------------------------------------------
D--------------------------------------------------------------------
A--------------3 slide 2--------2s3- ---3s5-------5s3----------------
E--------------------------------------------------------------------

-----------------------------------------------------------------------------

 -PUENTE(BRIDGE):

-LAS DOS GUITARRAS A LA VEZ FINGERPICKING
-(THE TWO GUITARS AT THE SAME TIME FINGERPICKING):
E---------11-------9-------7-------6-------5-------4-------3-------2------
B-------------------------------------------------------------------------
G-------0----0---0---0---0---0---0---0---0---0---0---0---0---0---0----0---
D-------------------------------------------------------------------------
A-----9--------7-------5-------4-------3-------2-------1-------0----------
E-------------------------------------------------------------------------

E------11-------9-------7-------6-------5-------4-------3-------2-----3----
B--------------------------------------------------------------------------
G----0----0---0---0---0---0---0---0---0---0---0---0---0---0---0----0-------
D--------------------------------------------------------------------------
A--9--------7-------5-------4-------3-------2-------1-------0---------2----
E--------------------------------------------------------------------------

-----------------------------------------------------------------------------

 -VERSO 3(VERSE 3)

 -SE TOCAN LOS MISMOS ACORDES CON LA PRIMERA GUITARRA Y LOS MISMOS PUNTEOS CON LA
SEGUNDA, PERO CON ESTA LETRA:
 -YOU HAVE TO PLAY THE SAME CHORDS WITH THE FIRST GUITAR AND THE SAME RIFFS WITH
THE SECOND, BUT WITH THAT LYRICS:


 -VERSO:             The city slips as she's arriving
 -(VERSE):           Tongue tied and twisted was her timing
             
 -PRE-ESTRIBILLO:    Her eyes glazed in deep despair
 -(PRE-CHORUS):      Those crocodile tears they don't care 

 -VERSO:             Don't turn your back cause she'll be gone
 -(VERSE):           Chasing shadows in the sun
                     
 -PRE-ESTRIBILLO:    All along the dusty road
 -(PRE-CHORUS):      Where she goes, well we'll never know 

 -VERSO:             And every time I think of Leizah
 -(VERSE):           I break down and I start crying
                     
 -PRE-ESTRIBILLO:    Although she tore me apart
 -(PRE-CHORUS):      There's still a place for that girl in my heart 

-----------------------------------------------------------------------------

 -ESTRIBILLO(CHORUS):

 
 GUITAR1: 
           G      Am              Bm      Am
           Leizah,   just passed  by her

GUITAR 2:FINGERPICKING
E----------3-----3s5------5 slide 7-------7s5------------------------
B--------------------------------------------------------------------
G--------------------------------------------------------------------
D--------------------------------------------------------------------
A----------2-----2s3------3 slide 5-------5s3------------------------
E--------------------------------------------------------------------

           
                       G         Am        Bm     Am
            Now your   standing      empty handed

GUITAR 2:FINGERPICKING
E--------------5 slide 3--------3s5- ---5s7-------7s5----------------
B--------------------------------------------------------------------
G--------------------------------------------------------------------
D--------------------------------------------------------------------
A--------------3 slide 2--------2s3- ---3s5-------5s3----------------
E--------------------------------------------------------------------

-----------------------------------------------------------------------------

 -PUENTE(BRIDGE):

-LAS DOS GUITARRAS A LA VEZ FINGERPICKING
-(THE TWO GUITARS AT THE SAME TIME FINGERPICKING):
E---------11-------9-------7-------6-------5-------4-------3-------2------
B-------------------------------------------------------------------------
G-------0----0---0---0---0---0---0---0---0---0---0---0---0---0---0----0---
D-------------------------------------------------------------------------
A-----9--------7-------5-------4-------3-------2-------1-------0----------
E-------------------------------------------------------------------------

E------11-------9-------7-------6-------5-------4-------3-------2-----3----
B--------------------------------------------------------------------------
G----0----0---0---0---0---0---0---0---0---0---0---0---0---0---0----0-------
D--------------------------------------------------------------------------
A--9--------7-------5-------4-------3-------2-------1-------0---------2----
E--------------------------------------------------------------------------

 -ESTO ES TODO, SEGURO QUE ESTA BIEN.
 -THAT'S ALL, I'M SURE IT'S OK.
-----------------------------------------------------------------------------


Текст, аккорды и табулатура для песни "Liezah", исполняет "Coral".
Используемые в песне аккорды можно найти в разделе Как брать аккорды. Аккорды для шестиструнной гитары. Другие песни можно найти на нашем сайте, воспользовавшись алфавитным указателем вверху страницы.


 
Ошибка в тексте? Выделите ошибку и нажмите Ctrl+Enter