intro riff, main riff

Am, F

|-5--1--
|-5--1--
|-5--2--
|-7--3--
|-7--3--
|-5--1--  do some twiddly parts as well if u can b bothered working them out,
I'm just the supplier of chords for the 


chorus

C, G, F, Am, F, Am, F, E

|-0--3--1--0--1--0--1--0-
|-1--3--1--1--1--1--1--0-
|-0--0--2--2--2--2--2--1-
|-2--0--3--2--3--2--3--2-
|-3--2--3--0--3--0--3--2-
|----3--1-----1-----1--0-


solo

|--------------------------------------------------------------------
|--------------------------------------------------------0---1---3---
|-2-4-5-7-5-4-2-5-5---0---0---0-2-4-5-7-5-4h5p4-2-5-5--2---2---4---5-
|-------------------2---2---2----------------------------------------
|--------------------------------------------------------------------
|--------------------------------------------------------------------

-8-----------------------------------------------------------
---5----3h5-3h5p3--------3-----3-----------1-----------------
-----5------------5-4-0----2h4---2h4p2p0-----2---------------
-----------------------------------------3-----3-3-3-2-0-----
---------------------------------------------------------3-0-
-------------------------------------------------------------

---------
---3p1---
-------2-
-2-------
---------
---------

ok, that's as far as I have got with the solo, but just really base the rest
of it around the Am chord and the bottom of the F shape, for the fingers on
frets 1-1-2-3


Текст, аккорды и табулатура для песни "Dreaming Of You", исполняет "Coral".
Используемые в песне аккорды можно найти в разделе Как брать аккорды. Аккорды для шестиструнной гитары. Другие песни можно найти на нашем сайте, воспользовавшись алфавитным указателем вверху страницы.


 
Ошибка в тексте? Выделите ошибку и нажмите Ctrl+Enter