CONTROL DENIED - BREAKING THE BROKEN
From the Album THE FRAGILE ART OF EXISTENCE

Transcribed by Eric Wilsevich ([email protected])

Email me if you have any questions, comments or if there are any errors.


Tuning = D (D,G,C,F,A,D)


Riff 1

|-----------|-----------|-----------|-----------|
|-----------|-----------|-----------|-----------|
|-----------|-----------|-----------|-----------|
|-----------|-----------|-----------|--------9--|
|-4---------|-3---------|-6---------|-7------7--|
|-2---------|-1---------|-4---------|-5----0----|



Riff 2A

|--------------|--------------|--------------|--------------|
|--------------|--------------|--------------|--------------|
|--------------|--------------|--------------|--------------|
|--------------|--------------|--------------|--------------|
|-2--2-2-2-3---|-2--2-2-2-3---|-2--2-2-2-3---|-2--2-2-2--2--|
|-0--0-0-0-1---|-0--0-0-0-1---|-0--0-0-0-1---|-0--0-0-0--0--|



Riff 2B

|--------------|--------------|-------------|--------------|
|--------------|--------------|-------------|--------------|
|--------------|--------------|-------------|--------------|
|--------------|--------------|---9----10---|---12-----7---|
|-2--2-2-2-3---|-2--2-2-2-3---|---7-----8---|---10-----5---|
|-0--0-0-0-1---|-0--0-0-0-1---|-0-----0-----|-0------0-----|



Riff 3

|-------------|-------------|-------------|------------|
|-------------|-------------|-------------|------------|
|---10--9--7--|----9--7--9--|---10--9--7--|---9--7--9--|Gtr. 1
|-------------|-------------|-------------|------------|
|----8--7--5--|----7--5--7--|----8--7--5--|---7--5--7--|
|-------------|-------------|-------------|------------|
|             |             |             |            |
|             |             |             |            |
|-------------|-------------|-------------|------------|
|-------------|-------------|-------------|------------|
|-------------|-------------|-------------|------------|Gtr. 2
|-9-----------|10-----------|-7-----------|10----------|
|-7-----------|-8-----------|-5-----------|-8----------|
|-------------|-------------|-------------|------------|



Riff 4A

|---------------|------------|--------------|-------------|
|---------------|------------|--------------|-------------|
|---------------|------------|--------------|-------------|Gtr. 1
|---------------|------------|--------------|-------------|
|---------------|------------|------------5-|-4h5p4-------|
|-3-5-6-5---5-6-|-5----------|-3-5-6-5------|-------5-6---|
|               |            |              |             |
|---------------|------------|--------------|-------------|
|---------------|------------|--------------|-------------|
|---------------|------------|--------------|-------------|Gtr. 2
|---------------|------------|------------7-|-6h7p6-------|
|-----------7-8-|-7----------|-5-7-8-7------|-------7-8---|
|---------------|------------|--------------|-------------|


Riff 4B

|---------------|------------|--------------|-------------|
|---------------|------------|--------------|-------------|
|---------------|------------|--------------|-------------|Gtr. 1 and 2
|---------------|------------|--------------|-------------|
|---------------|------------|------------5-|-4h5p4-------|
|-3-5-6-5---5-6-|-5----------|-3-5-6-5------|-------5-6---|

Riff 5

|--------------------|------------------|--------------------|
|--------------------|------------------|--------------------|
|--------------------|------------------|--------------------|
|--------------------|------------------|--------------------|
|-7--------10------9-|------------------|-7--------10------9-|
|---000000----0000---|-000000000000-10--|---000000----0000---|


|------------------|--------------------|--------------------|
|------------------|--------------------|--------------------|
|------------------|--------------------|--------------------|
|---------------7--|--------------------|------7-------------|
|------------------|-7--------10------9-|-----------10----9--|
|-0000-10--0000----|---888888----8888---|-8888---88----88----|


|----------------------|--------------------|
|----------------------|---------10---------|Gtr. 2
|----------------------|------------1211----|
|----------------------|----------7------12-|
|-7-000000-10-000000-9-|-00000000---10-9----|Gtr. 1
|----------------------|-----------------10-|


Riff 6

|-------|-------|-------|-------|
|-------|-------|-------|-------|
|-------|-------|-------|-------|
|-9-----|10-----|-9-----|10-----|
|-7-----|-8-----|-7-----|-8-----|
|-------|-------|-------|-------|



Riff 7

|-------|-------|-------|-------|
|-------|-------|-------|-------|
|-------|-------|-------|-------|
|-5-----|-7-----|-4-----|-5-----|
|-3-----|-5-----|-2-----|-3-----|
|-------|-------|-------|-------|


Song Progression

Riff 1 - play 4x
Riff 2A - play 2x
Riff 2B - play 1x
pause
Riff 2B - play 5x
Riff 3 - play 3x
Riff 4A - play 1x
Riff 4B - play 3x
Riff 5 - play 3x
Riff 6 - play 2x
Riff 7 - play 3x
Riff 1 - play 2x
Riff 2A - play 2x
Riff 2B - play 1x
pause
Riff 2B - play 5x
Riff 3 - play 3x
Riff 4A - play 1x
Riff 4B - play 3x
Riff 5 - play 3x


Текст, аккорды и табулатура для песни "Breaking The Broken", исполняет "Control Denied".
Используемые в песне аккорды можно найти в разделе Как брать аккорды. Аккорды для шестиструнной гитары. Другие песни можно найти на нашем сайте, воспользовавшись алфавитным указателем вверху страницы.


Слушать онлайн Breaking The Broken


Control DeniedBreaking The Broken на Яндекс.Музыке


 
Ошибка в тексте? Выделите ошибку и нажмите Ctrl+Enter