Gel-Collective Soul       
Listen To Song For Rythem and Lyrics 
There's No Solo But It's The Right Way To Play It
Tabbed By:Kaos
Intro: Clean
       
       |------------------------------------------|
       |------------------------------------------|
       |------------------------------------------|
       |------------------------------------------|
       |--6-7------6--6---6-7---------------------|
       |--6-7--6-7---7----6-7-6-7-----------------|

       Distortion
       |------------------------------------------|Color Me Any Color...
       |------------------------------------------|
       |----------------9-10-9-7------------------|
       |--9-9-9-9-9-9---9-10-9-7------------------|
       |--9-9-9-9-9-9-0-7-8--7-5------------------|
       |--7-7-7-7-7-7-----------------------------|

       |------------------------------------------|Well I Just Want...
       |------------------------------------------|
       |------------------------------------------|
       |--7/5/9-----------------------------------|
       |--7/5/9-----------------------------------|
       |--5/3/7--0-3-0-4--------------------------|

       |------------------------------------------|
       |------------------------------------------|
       |----------------9-10-9-7------------------|
       |--9-9-9-9-9-9---9-10-9-7------------------|
       |--9-9-9-9-9-9-0-7-8--7-5------------------|
       |--7-7-7-7-7-7-----------------------------|

       |------------------------------------------|Well I Just Want...
       |------------------------------------------|
       |------------------------------------------|
       |--7/5/9/5/9/5/9---------------------------|
       |--7/5/9/5/9/5/9---------------------------|
       |--5/3/7/3/7/3/7--0-3-0-4-0-5--------------|


       |------------------------------------------|Let's Mingle..  
       |------------------------------------------|
       |-------8/9---------------8/9--------------|
       |--8/9--8/9-8/9-999--8/9--8/9-8/9-999------|
       |--8/9--6/7-8/9-999--8/9--6/7-8/9-999------|
       |--6/7------6/7-777--6/7------6/7-777------|

       |------------------------------------------|Repeat
       |------------------------------------------|
       |----------------9-10-9-7------------------|
       |--9-9-9-9-9-9---9-10-9-7------------------|
       |--9-9-9-9-9-9-0-7-8--7-5------------------|
       |--7-7-7-7-7-7-----------------------------|


Текст, аккорды и табулатура для песни "Gel", исполняет "Collective Soul".
Используемые в песне аккорды можно найти в разделе Как брать аккорды. Аккорды для шестиструнной гитары. Другие песни можно найти на нашем сайте, воспользовавшись алфавитным указателем вверху страницы.


Слушать онлайн Gel


Collective SoulGel на Яндекс.Музыке


 
Ошибка в тексте? Выделите ошибку и нажмите Ctrl+Enter