Jude Cole
House Full Of reasons
A View From 3rd Street
Distortion

key:
p - palm mute
* - repeat x 7


Intro:
e---------------------------------------------------------------------------
b---------------------------------------------------------------------------
d---------------------------------------6--6--6-6-6-------------------------
g---4-6-7-6---7--7--7-7-7--4--4--4-4-4--6--6--6-6-6--2--2--2-2-2---repeat x 1
a---4-6-7-6---7--7--7-7-7--4--4--4-4-4--4--4--4-4-4--2--2--2-2-2------------
e---2-4-5-4---5--5--5-5-5--2--2--2-2-2---------------0--0--0-0-0------------


Verse:
e---------------------------------------------------------------------------
b---------------------------------------------------------------------------
d---7p*--------7p*-----------4p*---------------7p*--------------------------
g---7p*--------7p*-----------4p*---------------7p*--------------------------
a---5p*--------4p*-----------2p*---------------5p*--------------------------
e---------------------------------------------------------------------------
   This is the room, where I sat and waited.....Till the morning

Then, with same riff:

Watching the door, 
that you slammed so hard...
It broke the windows

e----------------------------------------------------------------------------
b----------------------------------------------------------------------------
d----------7-------------4-------------7-------------------4-----------------
g-4--------7-------------4-------------7--------4----------4-----------------
a-4--------5-------------2-------------5--------4----------2-----------------
e-2---------------------------------------------2----------------------------
  Up...And down...I've climbed these walls. It seems I'm trapped inside this

Chorus:
Play same riff as intro while singing:

House full of reasons....I should be moving on
You had me believing....this is the way love goes
off and on among....normal people

Verse 2:
Down in the hall
Pictures of a happier couple
Just hang on the wall 
And smile away through all the trouble

Side...to side
The clock on the wall
Reminding me by the hour

Chorus

Bridge:

e---------------------------------------------------------------------------
b---------------------------------------------------------------------------
d----7-------------------4------------------------------7-------------------
g----7-------------------4---------------4--------------7-------------------
a----5-------------------2---------------4--------------5-------------------
e----------------------------------------2----------------------------------
  All day....when its da-a-a-ark!  It seems theres nothing here but (echo)

Chorus......fade out.

Thats it. Any additions or corections send to [email protected]

Enjoy!


Текст, аккорды и табулатура для песни "House Full Of Reasons", исполняет "Cole Jude".
Используемые в песне аккорды можно найти в разделе Как брать аккорды. Аккорды для шестиструнной гитары. Другие песни можно найти на нашем сайте, воспользовавшись алфавитным указателем вверху страницы.


 
Ошибка в тексте? Выделите ошибку и нажмите Ctrl+Enter