Coldplay - Yellow           
Intro

B / Badd11 / B   x2
Guitar 1: B / F# / E / B   x16 each chords
Guitar 2:
   
    B                                                                  F#
--------------------------------------------------------------------------------
--------------------------------------------------------------------------------
-11-11-11-11-11-11-11-11-9-9-9-9-9-9-9-9-15-15-15-15-15-15-15-15-13-13-13-13-13-
--------------------------------------------------------------------------------
--------------------------------------------------------------------------------
--------------------------------------------------------------------------------
                   E                                                  B
----------------------------------------------------------------------------------
----------------------------------------------------------------------------------
-13-13-13-6-6-6-6-6-6-6-6-4-4-4-4-4-4-4-4-11-11-11-11-11-11-11-11-9-9-9-9-9-9-9-9-
----------------------------------------------------------------------------------
----------------------------------------------------------------------------------
Verse
B                                                                 F#
ook at the stars, look how they shine for you,
                                 E
nd everything you do,
Yeah they were all yellow.
                                                  F#
 came along, I wrote a song for you
                                    E
nd all the things you do
And it was called Yellow
                            F#
o then I took my turn
                                        E
h what a thing to have done
And it was all yellow.


ntro to chorus
  
     B                       B7sus4   B
-----------------------------------------
-----------------------------------------
--8-8-8-8-8-8-8-8-9-9-9-9-8-8-8-8
--9-9-9-9-9-9-9-9-----------9-9-9-9
--9-9-9-9-9-9-9-9-9-9-9-9-9-9-9-9
--7-7-7-7-7-7-7-7-7-7-7-7-7-7-7-7
Chorus
E                  G#m                       F#
ou're skiiiiiin, oh yeah you're skin and bones.
                     G#m                   F#
urn innnnnnnto, something beautiful.
                        G#m                     F#            E
'You knooooooow, you know I love you so...
You know I love you so
Verse
B                                                         F#
 swam accross, I jumped accross for you,
                               E
h what a thing to do,
Cause you were all yellow.
                                               F#
 drew a line, I drew a line for you,
                              E
h what a thing to do,
And it was all yellow.
Intro to chorus
   B             B7sus4  B
------------------------------------
------------------------------------
--8-8-8-8-9-9-9-9-8-8-8-8-8-8-8-8---
--9-9-9-9-----------9-9-9-9-9-9-9-9-
--9-9-9-9-9-9-9-9-9-9-9-9-9-9-9-9---
--7-7-7-7-7-7-7-7-7-7-7-7-7-7-7-7---
Chorus
E                  G#m                       F#
ou're skiiiiiin, oh yeah you're skin and bones
                     G#m                  F#
urn innnnnnnto something beautiful
                          G#m                F#                      E
'you knooooooow, for you i'd bleed myself dry
For you i'd bleed myself dry

utro x2  (Guitar 2 play chords on top)
   
    B                                                                  F#
----------------------------------------------------------------------------------
----------------------------------------------------------------------------------
-11-11-11-11-11-11-11-11-9-9-9-9-9-9-9-9-15-15-15-15-15-15-15-15-13-13-13-13-13---
----------------------------------------------------------------------------------
----------------------------------------------------------------------------------
----------------------------------------------------------------------------------
                   E                                                  B
----------------------------------------------------------------------------------
----------------------------------------------------------------------------------
-13-13-13-6-6-6-6-6-6-6-6-4-4-4-4-4-4-4-4-11-11-11-11-11-11-11-11-9-9-9-9-9-9-9-9-
----------------------------------------------------------------------------------
----------------------------------------------------------------------------------
And then this one time 
    F#                                                                                E
----------------------------------------------------------------------------------
----------------------------------------------------------------------------------
-15-15-15-15-15-15-15-15-13-13-13-13-13-13-13-13-6-6-6-6-6-6-6-6-4-4-4-4-4-4-4-4--
----------------------------------------------------------------------------------
----------------------------------------------------------------------------------
----------------------------------------------------------------------------------


utro lyrics
It's true, look how they shine for you,
Look how they shine for you,
Look how they shine for, 

ook how they shine for you,
Look how they shine for you,
Look how they shine.
End
B
ook at the stars
                                      F#
ook how the shine for you
                                           E
nd all the things that you do...
Chords
                   EADGBe
      (799877)
add11 (799800)
#     (244322)
      (022100)
#m    (466444)
:
hab by: Benoit Landry, [email protected]


Текст, аккорды и табулатура для песни "Yellow", исполняет "Coldplay".
Используемые в песне аккорды можно найти в разделе Как брать аккорды. Аккорды для шестиструнной гитары. Другие песни можно найти на нашем сайте, воспользовавшись алфавитным указателем вверху страницы.


 
Ошибка в тексте? Выделите ошибку и нажмите Ctrl+Enter