Coldplay
Trouble
Parachutes

arranged for guitar *piano is used in song*

E-2-3-2-------2-3-2-----2-3-2-----------------------------
|B|-------3-0-0-----3-0-0-------3-0-------------------------
G---------------------------------------------------------
D---------0---------2-------------------------------------
|A|-------------------------------2-------------------------
E---------------------------------------------------------

E---5-3-2-------2-3-2-------2-3-2-------------------------
|B|-0-------3-0-0-------3-0-0-------3-0---------------------
G---------------------------------------------------------
D-----------0-----------2---------------------------------
|A|-----------------------------------2---------------------
E---------------------------------------------------------

the rest of the song *not exact* sounds pretty good with:
G(320033)
G-barre(355433)
C9?(x32033)
D(xx0232)
E(022100)

verses:  G  C9?  D

chorus:  E  G-barre


Текст, аккорды и табулатура для песни "Trouble", исполняет "Coldplay".
Используемые в песне аккорды можно найти в разделе Как брать аккорды. Аккорды для шестиструнной гитары. Другие песни можно найти на нашем сайте, воспользовавшись алфавитным указателем вверху страницы.


 
Ошибка в тексте? Выделите ошибку и нажмите Ctrl+Enter