E|---12-12--9----9----9-----12-12--9----9----9----|
B|------------12---12----------------12---12------|
G|------------------------------------------------|
D|------------------------------------------------|
A|------------------------------------------------|
E|------------------------------------------------|


E|--12-12--9----9----9---12--12--9/7--9--7--9-----|
B|---------- 12---12------------------------------|
G|------------------------------------------------|
D|------------------------------------------------|
A|------------------------------------------------|
E|------------------------------------------------|

E|---12-12--9----9----9-----12-12--9----9----9----|
B|------------12---12----------------12---12------|
G|------------------------------------------------|
D|------------------------------------------------|
A|------------------------------------------------|
E|------------------------------------------------|


E|--12-12--9----9----9---12--12--9/7--9--7--9-----|
B|---------- 12---12---------------------------10-|
G|------------------------------------------------|
D|------------------------------------------------|
A|------------------------------------------------|
E|------------------------------------------------|


Текст, аккорды и табулатура для песни "In My Place", исполняет "Coldplay".
Используемые в песне аккорды можно найти в разделе Как брать аккорды. Аккорды для шестиструнной гитары. Другие песни можно найти на нашем сайте, воспользовавшись алфавитным указателем вверху страницы.


 
Ошибка в тексте? Выделите ошибку и нажмите Ctrl+Enter