Clocks By Coldplay

Tabbed by: MWMMak

first wait for piano to start then come in after 8 Measures
Intro:

e[---------------------]
B[---------------------]
G[--8------6-----------]
D[--10-X8--8-X16-------]
A[--10-----8-----------]
E[--8------6-----------]

The guitar cuts for the verse

Chorus:

e[---------------------]
B[---------------------]
G[--8------6-----------]
D[--10-X8--8-X16-------]
A[--10-----8-----------]
E[--8------6-----------]

this is the little fill in after the first chorus

e[---1311-------]
B[---------------]
G[---------------]
D[---------------]
A[---------------]
E[---------------]

the verse and chorus happen one more time before the bridge.

Bridge:

e[-------------------------------------------------------------------]
B[-------------------------------------------------------------------]
G[----------------------------------------------------10x4-----10x4--]
D[--15x48--16/18x8------------15x16--16/18x8-10x88x8-8x4--8x8-8x4---]
A[-----------------15x813x8-----------------7-x87x8-7x4--7x8-7x4---]
E[-------------------------------------------------------------------]

After the bridge the guitar cuts out and it goes into a piano instrumental.
then it goes into the chorus. and 15 measures before the chorus ends the guitar
starts playing this, and just continues too play it for the rest of the song.

Ending:

e[-----------------------------]
B[--9-----9-----9------9-------]
G[---108--108--1210--1210--]
D[-----------------------------]
A[-----------------------------]
E[-----------------------------]


Текст, аккорды и табулатура для песни "Clocks", исполняет "Coldplay".
Используемые в песне аккорды можно найти в разделе Как брать аккорды. Аккорды для шестиструнной гитары. Другие песни можно найти на нашем сайте, воспользовавшись алфавитным указателем вверху страницы.


 
Ошибка в тексте? Выделите ошибку и нажмите Ctrl+Enter