Main riff
|12------12--------12-----|-10--------10--------10---------|
|---12------12--------12--|----12--------12--------12------|
|------13------13---------|-------11--------11-------------|
|-------------------------|--------------------------------|
|-------------------------|--------------------------------|
|-------------------------|--------------------------------|

|10-------10-------10-----|-9-------9-------9--------------|
|---12-------12-------12--|---10------10------10-----------|
|------11-------11--------|------11------11----------------| 
|-------------------------|--------------------------------|
|-------------------------|--------------------------------|
|-------------------------|--------------------------------|


Текст, аккорды и табулатура для песни "Clocks", исполняет "Coldplay".
Используемые в песне аккорды можно найти в разделе Как брать аккорды. Аккорды для шестиструнной гитары. Другие песни можно найти на нашем сайте, воспользовавшись алфавитным указателем вверху страницы.


 
Ошибка в тексте? Выделите ошибку и нажмите Ctrl+Enter