The Switch
Straight C Tuning, tune down two whole steps

1=C   4=Bb
2=G   5=F
3=Eb  6=C

| ---------------------------------------------------------------------- |
| ---------------------------------------------------------------------- |
| -11--11-11-11--11-11-11-11-11-11--13--13-13-13-13-13-13-13-13-13----- | 
| -11--11-11-11--11-11-11-11-11-11--13--13-13-13-13-13-13-13-13-13-11- |
| --9---9--9--9---9--9--9---9-9--9--11--11-11-11-11-11-11-11-11-11------|
| -----------------------------------------------------------------9-- |
  Intro (Scooter) to the rigth is Kelly's part, strum with dist.

| ------------------------------- |
| ------------------------------- |
| ------------------------------- |
| -11------9------7-----6------ |
| --9------7------5-----4------ |
| ------------------------------- |
  Pre-Chorus

| ----------------------------------------- |
| ----------------------------------------- |
| ----------------------------------------- |
| -7-7-7-7--6-6-6-6--------------------- |
| -5-5-5-5--4-4-4-4-----5-5--6-6--7-7---- |
| ----------------------3-3--4-4--5-5---- |
  Chorus


===========================================================

Author/Artist: Cold
Title: The Switch
Album: Cold
Transcribed by: Wes Dolezal
Email: [email protected]
Tunning: Drop D

I was sick of looking for good cold tabs, so I tried to tab a few
myself.  I only did the ones that can be done in Drop D.  If I get a good
response from these tabs, I will drop my guitar another step and get the
other songs, so let me know what you think.  E-mail me, or go to my website
and sign my guestbook.  http://www.geocities.com/SunsetStrip/Diner/8868/main.html
Anyways, here it goes.  This is just my best guess, thats why I want feedback to see
I'm close or not.

-|---------------|
-|---------------|
-|-7---5--10---9-|
-|-7---3---8---7-|
-|-5---3---8---7-|
-|-----3---8---7-|
These are the chords used in the Verse, and Intro.
You should know the pattern.

-|------------------------------------------------------------------|
-|------------------------------------------------------------------|
-|-7-7-7-7-7-7-7-7-7-7-7-7-7-7-7-9-9-9-9-9-10-10-10-10-12-12-12-12--|
-|------------------------------------------------------------------|
-|------------------------------------------------------------------|
-|------------------------------------------------------------------|
This is the little lead part Kelly plays at
the begining.  Pattern is not right, just
listen to the CD.

-|------------------------------------------------------------------|
-|------------------------------------------------------------------|
-|-7-7-7-7-7-7-7-7-7-7-7-5-5-5-5-5-5-5-5-5-3-3-3-3-3-3-3-2-2-2-2-2--|
-|------------------------------------------------------------------|
-|------------------------------------------------------------------|
-|------------------------------------------------------------------|
This part is played softly in the verse after about the second
time through the progression.  Again strumming isnt right.

-|------------------------------------------------------------------|
-|---------------------------------3-3------------------------------|
-|---------------------------------2-2------------------------------|
-|-8-8-8-8-8-8-8-7-7-7-7-7-7-7-----0-0--x-x-x-x-2-2-x-x-x-x-3-3-3-3-|
-|-8-8-8-8-8-8-8-7-7-7-7-7-7-7-----0-0--x-x-x-x-2-2-x-x-x-x-3-3-3-3-|
-|-8-8-8-8-8-8-8-7-7-7-7-7-7-7-----0-0--x-x-x-x-2-2-x-x-x-x-3-3-3-3-|
Chorus

-|------------------------------------------------------------------|
-|------------------------------------------------------------------|
-|-7-7-7-7-7-7-7-7-7-7-7-5-5-5-5-5-5-5-5-5-9-9-9-9-9-9-10-10-10-12--|
-|------------------------------------------------------------------|
-|------------------------------------------------------------------|
-|------------------------------------------------------------------|
Alternate lead part.

-|----------|
-|-3--------|
-|-2--------|
-|-0--2--3--|
-|-0--2--3--|
-|-0--2--3--|
The end progression.

If you want to request a song, just e-mail me.


Текст, аккорды и табулатура для песни "The Switch", исполняет "Cold".
Используемые в песне аккорды можно найти в разделе Как брать аккорды. Аккорды для шестиструнной гитары. Другие песни можно найти на нашем сайте, воспользовавшись алфавитным указателем вверху страницы.


 
Ошибка в тексте? Выделите ошибку и нажмите Ctrl+Enter