Cold/Year of the Spider/Suffocate

Tabbed by: Dave

The verse for this song, is sorta strange at first, but you can easily catch 
on really quikly. The rest of the song is a snap. So heres Suffocate. Enjoy!:)

0:10                         Verse
G|--------------|--------------|---------------|-------------|
D|--------------|--------------|---------------|-------------|
A|--------------|--------------|---------------|-------------|4x
E|1--1--1-1-1-1~|4--4--4-4-4-4~|3--3--3-3-3-3-4|1--1--1-1-1-1|

0:48                           Chorus
G|---------------|---------------|---------------|-------------|
D|---------------|---------------|---------------|-------------|
A|---------------|---------------|1-1-1-1-1-1-1-1|3--3--1--3---|2x
E|3-3-3-3-3-3-3-3|0-0-0-0-0-0-0-0|---------------|------------1|

1:07 Verse 3x

1:36 Chorus 3x

2:06                           Bridge
G|---------------|---------------|---------------|---------------|
D|---------------|---------------|---------------|---------------|
A|---------------|---------------|---------------|---------------|4x
E|3-3-3-3-3-3-3-3|1-1-1-1-1-1-1-1|0-0-0-0-0-0-0-0|0-0-0-0-0-0-0-0|

Drum Solo

2:53 Chorus 3x

3:22 Outro
G|-----------------|
D|-----------------|
A|------------3~~~~|1x
E|4~~~~-1~~~~------|


Текст, аккорды и табулатура для песни "Suffocate", исполняет "Cold".
Используемые в песне аккорды можно найти в разделе Как брать аккорды. Аккорды для шестиструнной гитары. Другие песни можно найти на нашем сайте, воспользовавшись алфавитным указателем вверху страницы.


 
Ошибка в тексте? Выделите ошибку и нажмите Ctrl+Enter