Artist : Cold
Song : Suffocate
Album : Year of the Spider
Tuning : 2 steps down, C G Eb Bb F C

Intro/Verse
-------------------------------------------
-------------------------------------------
----------2-2---2-------------0-0---0------
------2-2-----2---2-2-----2-2-----2---2-2--
--0-0-----------------3-3------------------
-------------------------------------------

-----------------------------------------
-----------------------------------------
----------0-0---0-------------2-2-2-2/4--
------0-0-----0---0-0-----2-2------------
----------------------0-0----------------
--3-3------------------------------------

Pre Chorus 1 (before first chorus)
----------------------------------------------------------------------
----------------------------------------------------------------------
-4/5-5-5-5-54-4-4-4---------0--4h5-5-5-5-4-4-4-4---------2-2-2-2/4--
-------------------------2-2---------------------------2-2------------
---------------------0-0---------------------------0-0----------------
----------------------------------------------------------------------

----------------------------------------------------------------------------
----------------------------------------------------------------------------
-4/5-5-5-5/7-7-7-7-7----------0--4-4-4h5-5-5-5-4-4-4-4---------2-2-2-2/4--
---------------------------2-2-------------------------------2-2------------
-----------------------0-0-------------------------------0-0----------------
----------------------------------------------------------------------------

Pre Chorus 2 (before second chorus)
----------------------------------------------------------------------------
----------------------------------------------------------------------------
-4/5-5-5-5/7-7-7-7-7----------0--4-4-4h5-5-5-5-4-4-4-4---------2-2-2-2/4--
---------------------------2-2-------------------------------2-2------------
-----------------------0-0-------------------------------0-0----------------
----------------------------------------------------------------------------

Chorus (Guitar 1) *listen to the song for rhythm of chords*
-----------|----
-----------|----
-----------|----
-5---------|----
-3--5--7---|-7--
----3--5---|-5--

Chorus (Guitar 2)
-----------|------------
-----------|------------
-----------|------------
-5---------|-7-5-5-7-2--
-3--5--7---|-5-3-3-5-0--
----3--5---|------------

Bridge
----------------------------------------------------------------------
----------5-------3----3---------------------5-------3----3-----------
-9----7-----5-----5------5---5------9----7-----5-----5------5---5-----
-9------7-----5---5------------5----9------7-----5---5------------5---
-7--5-------------3--3-----3-----3--7--5-------------3--3-----3-----3-
----------------------------------------------------------------------

-----------
-----------
--9--7--5--
--9--7--5--
--7--5--3--
-----------

Outro
-----------
-----------
-----------
--5--------
--3--5--7--
-----3--5--


Текст, аккорды и табулатура для песни "Suffocate", исполняет "Cold".
Используемые в песне аккорды можно найти в разделе Как брать аккорды. Аккорды для шестиструнной гитары. Другие песни можно найти на нашем сайте, воспользовавшись алфавитным указателем вверху страницы.


 
Ошибка в тексте? Выделите ошибку и нажмите Ctrl+Enter