Cold-Stupid Girl

Intro
Main Riff
Verse 1
Pre Chorus
Chorus
Main Riff
Verse 2
Pre-Chorus
Chorus
Bridge 2x(1x acoustic,1x distortion)
Chorus
Main Riff 2x


Guitar 1
Intro
------------------------------------------------------------
------------------------------------------------------------
------------------------------------------------------------
---5-5----5-5----5-5----5-5-5-4-4-----4-4---4-4---4-4-4-2-2-
------------------------------------------------------------
-0------0------0------0-------------0-----0------0----------

----------------------------------------------------
----------------------------------------------------
----------------------------------------------------
----2-2----2-2-----2-2-2-0-0----0-0--0-0--0-0--0-0--
----------------------------------------------------
-0-------0------0-------------0-----0----0----0-----   1x


Main Riff
Guitar 1

---10---------10----------12----------13---------
-------10-10-----10-10-------10-10-------10-10---
-------------------------------------------------
-------------------------------------------------
-------------------------------------------------
-------------------------------------------------

--10---------10---------12---------10--------
------10-10-----10-10-------10-10-----10-10--
---------------------------------------------
---------------------------------------------
---------------------------------------------
---------------------------------------------    1x


Guitar 2

------------------------------
------------------------------
------------------------------
-0-0-0--0-0-0--2-2-2--3-3-3---
-0-0-0--0-0-0--2-2-2--3-3-3---
-0-0-0--0-0-0--2-2-2--3-3-3---

------------------------------
------------------------------
------------------------------
-0-0-0--0-0-0--8-8-8--7-7-7---
-0-0-0--0-0-0--8-8-8--7-7-7---
-0-0-0--0-0-0--8-8-8--7-7-7---  1x

Verse 1
Guitar 1
------------------------------
------------------------------
------------------------------
-0-0-0--0-0-0--2-2-2--3-3-3---
-0-0-0--0-0-0--2-2-2--3-3-3---
-0-0-0--0-0-0--2-2-2--3-3-3---

------------------------------
------------------------------
------------------------------
-0-0-0--0-0-0--8-8-8--7-7-7---
-0-0-0--0-0-0--8-8-8--7-7-7---
-0-0-0--0-0-0--8-8-8--7-7-7---  2x
pm--------------------------


Pre-Chorus
Guitar 2                      Guitar 1


|----------------------|-10--------12-------------
|----------------------|----10-10-----10-10-------
|----------------------|--------------------------
|--0--0--0--0----------|--------------------------
|--0--0--0--0----------|--------------------------
|--0--0--0--0----------|--------------------------
pm------------

                                                                     
------------------------|--10---------12-------------
------------------------|-----10--10----10-10--------
------------------------|----------------------------
------0--3--0--0--0--0--|----------------------------
------0--3--0--0--0--0--|----------------------------
------0--3--0--0--0--0--|----------------------------
           pm---------

                                Repeat Guitar 1                    
------------------------|--------------------------|
------------------------|--------------------------|
------------------------|--------------------------|
------0--3--0--0--0--0--|--0--0--8--8--8--7--7--7--|
------0--3--0--0--0--0--|--0--0--8--8--8--7--7--7--|
------0--3--0--0--0--0--|--0--0--8--8--8--7--7--7--|

         pm--------                          




Chorus

Guitar 2
|---------------------------|
|---------------------------|
|*--------------------------|
|*--5--5--5--5--5--5--5--5--|
|---5--5--5--5--5--5--5--5--|
|---5--5--5--5--5--5--5--5--|


                                                      
--------------------------|--------------------------|
--------------------------|--------------------------|
--------------------------|--------------------------|
--5--5--5--5--9--9--9--9--|--9--9--9--9--9--9--9--9--|
--5--5--5--5--9--9--9--9--|--9--9--9--9--9--9--9--9--|
--5--5--5--5--9--9--9--9--|--9--9--9--9--9--9--9--9--|


                                                      
--------------------------|--------------------------|
--------------------------|--------------------------|
--------------------------|--------------------------|
--2--2--2--2--2--2--2--2--|--2--2--2--2--0--0--0--0--|
--2--2--2--2--2--2--2--2--|--2--2--2--2--0--0--0--0--|
--2--2--2--2--2--2--2--2--|--2--2--2--2--0--0--0--0--|


                                                        
---------------------------|
---------------------------|
--------------------------*|
--0--0--0--0--0--0--0--0--*|
--0--0--0--0--0--0--0--0---|
--0--0--0--0--0--0--0--0---| 2x


Guitar 1
|---3--------5--------3-----|-----5--------2--------5--|
|------3--3-----3--3-----3--|--3-----3--3-----2--2-----|
|*--------------------------|--------------------------|
|*--------------------------|--------------------------|
|---------------------------|--------------------------|
|---------------------------|--------------------------|


                                                      
--------2--------5--------|--0--------3--------0-----|
--2--2-----2--2-----2--2--|-----0--0-----0--0-----0--|
--------------------------|--------------------------|
--------------------------|--------------------------|
--------------------------|--------------------------|
--------------------------|--------------------------|


                                                        
-----3--------3--------5--|--------7--5--3--2--3--2---||
--0-----0--0-----3--3-----|--3--3---------------------||
--------------------------|--------------------------*||
--------------------------|--------------------------*||
--------------------------|---------------------------||
--------------------------|---------------------------||2x



Bridge
Guitar 2 first time clean,Guitar 1 and 2 second time distortion
--------------------------------------------------------------
--------------------------------------------------------------
-7--7-7-7-7--9-9-9-10-10-10-------------------9-9-9-10-10-10--
-7--7-7-7-7--9-9-9-10-10-10--10--10-10-10-10--9-9-9-10-10-10--
-5--5-5-5-5--7-7-7 8--8--8---10--10-10-10-10--7-7-7-8--8--8---
-----------------------------10--10-10-10-10------------------

---------------------------------------------------------------
---------------------------------------------------------------
-------------9-9-9-10-10-10-----------------9-9-9-10-10-10-----
-8--8-8-8-8--9-9-9-10-10-10---7--7-7-7-7----9-9-9-10-10-10-----
-8--8-8-8-8--7-7-7-8--8--8----7--7-7-7-7----7-7-7-8--8--8------
-8--8-8-8-8-------------------7--7-7-7-7-----------------------  2x

Now this tab is perfect,i went around to other sites and got all
the tabs and put the best ones together.I guarentee this tab is perfect!


Текст, аккорды и табулатура для песни "Stupid Girl", исполняет "Cold".
Используемые в песне аккорды можно найти в разделе Как брать аккорды. Аккорды для шестиструнной гитары. Другие песни можно найти на нашем сайте, воспользовавшись алфавитным указателем вверху страницы.


 
Ошибка в тексте? Выделите ошибку и нажмите Ctrl+Enter