Song: Stupid Girl
Band: Cold
Album: Year of the Spider
Tabbed By: Spyd3r

Tuning: C F Bb Eb G C

Here's THE CORRECT WAY TO PLAY THIS SONG.. it's from guitar world,
so it's 100% f**Kin' correct, questions? [email protected]


Intro:  guitar1 (w/dist)
|------------|----------------------------------------------|
|------------|----------------------------------------------|
|------------|----------------------------------------------|
|------------|----------------------------------------------|
|------------|--12-12------12--12---12-12--------12--12--12-|
|-slide------|0---------0--------0-------------0------------|

|---------------------|-----------------------|
|---------------------|-----------------------|
|---------------------|-----------------------|
|---------------------|-----------------------|
|-11--11-11---11--11--|-11--11-11---11--11-11-|
|-----------0--------0|-----------0-----------|

|--------------------|------------------|----------------|
|--------------------|------------------|----------------|
|--------------------|------------------|-9--9-9---9-9---|
|--------------------|------------------|-x--x-x---x-x---|
|-9---9--9---9---9---|-9--9-9---9--9--9-|-7--7-7---7-7---|
|----------0-------0-|--------0---------|--------0-----0-|

|-----------------|
|-----------------|
|-9--9-9---9--9---|
|-x--x-x---x--x---|
|-7--7-7---7--7-0-|
|--------0------0-|

Intro pt2

Guitar1
|------------------|-------------------|--------------------|
|------------------|-------------------|--------------------|
|------------------|-------------------|--------------------|
|------------------|-------------------|--------------------|
|-2----2--2------2-|-4--4--4--5--5---5-|-2-----2--2--2----2-|
|-0----0--0------0-|-2--2--2--3--3---3-|-0-----0--0--0----0-|

|--------------------|
|--------------------|
|--------------------|
|-5--5---5--4--4---4-|
|-3--3---3--2--2---2-|
|--------------------|

Guitar 2 (w/dist) Riff A
|-12----------12-----------|-14-----------15-----------|
|----12-12-12-----12-12-12-|-----12-12-12----12-12-12--|
|--------------------------|---------------------------|
|--------------------------|---------------------------|
|--------------------------|---------------------------|
|--------------------------|---------------------------|

|-12----------12----------|-14--------10--------|
|----12-12-12----12-12-12-|----12--12----12--12-|
|-------------------------|---------------------|
|-------------------------|---------------------|
|-------------------------|---------------------|
|-------------------------|---------------------|



Pre-Chorus
guitar2
Riff B

Guitar1
     P.M.......,   P.M.                        P.M......,     P.M.
|-----------------------|-----------------|------------------------|
|-----------------------|-----------------|------------------------|
|-----------------------|-----------0-----|------------------------|
|-----------------------|-----------0-----|------------------------|
|-2-------------2--2--2-|-----------0--0--|-2--------------2--2--2-|
|-0--0--0--0--0-0--0--0-|--------------0--|-0--0--0--0--0--0--0--0-|

|--------------------|
|--------------------|
|--------------0-----|
|--------------0-----|
|--------------0---0-|
|------------------0-|

     P.M.......,   P.M.                        P.M......,     P.M.
|-----------------------|-----------------|------------------------|
|-----------------------|-----------------|------------------------|
|-----------------------|-----------0-----|------------------------|
|-----------------------|-----------0-----|------------------------|
|-2-------------2--2--2-|-----------0--0--|-2--------------2--2--2-|
|-0--0--0--0--0-0--0--0-|--------------0--|-0--0--0--0--0--0--0--0-|

Guitar 2 (PM)
|-----------------------|-14-----------15---------|-------------------|
|-----------------------|-----12---12------12--12-|-------------------|
|-----------------------|-------------------------|-------------------|
|-----------------------|-------------------------|-------------------|
|-----------------------|-------------------------|-------------------|
|-----------------------|-------------------------|-------------------|

|-14---------10-------|
|----12--12-----12-12-|
|---------------------|
|---------------------|
|---------------------|
|---------------------|
P.M.........,

Chorus

Guitar1
|------------------|-----------------|---------------|
|------------------|-----------------|---------------|
|-2-----2--2--2--2-|-6----6--6--6--6-|-6---6--6--6---|
|-2-----2--2--2--2-|-6----6--6--6--6-|-6---6--6--6---|
|-0-----0--0--0--0-|-4----4--4--4--4-|-4---4--4--4---|
|--(Do x2)---------|-----------------|-------------0-|
  

|--------------------|-----------------|----------------|
|--------------------|-----------------|---(Do x2)------|
|--------------------|-----------------|----------------|
|-4-----4--4---4---4-|-4----4--4--4--4-|-2---2--2--2--2-|
|-4-----4--4---4---4-|-4----4--4--4--4-|-2---2--2--2--2-|
|-2-----2--2---2---2-|-2----2--2--2--0-|-0---0--0--0--0-|

Guitar 2
|---------------------------|--------------------|
|-10---10-10-10--12--10--10-|-9--9-9-9--12--9--9-|
|---------------------------|--------------------|
|----(Do x2)----------------|----(Do x2)---------|
|---------------------------|--------------------|
|---------------------------|--------------------| 

|-----------------------|--------------------------|
|-------------10--------|--------------------------|
|-11--11-11-9-----9--11-|-11--11-11-11--11--11--11-|
|-----------------------|--------------------------|
|-----------------------|--------------------------|
|-----------------------|--------------------------|

|-----------------|
|-14-12-10-9-10-9-|
|-----------------|
|-----------------|
|-----------------|
|-----------------|


Repeat intro pt2

2nd Verse

Guitar2
P.M..................................................................
|-12---------12--------|-14--------15--------|-12---------12--------|
|----12--12-----12--12-|----12--12----12--12-|-----12--12----12--12-|
|----------------------|---------------------|----------------------|
|----------------------|---------------------|----------------------|
|----------------------|---------------------|----------------------|
|----------------------|---------------------|----------------------|
P.M.......................
|-14----------10---------|
|-----12--12------12--12-|
|------------------------|
|------------------------|
|------------------------|
|------------------------|

Repeat pre-chorus, Chorus x3


Guitar2 (acoustic)
|------------------|------------------------|-----------------|
|------------------|------------------------|-----------------|
|------------------|------------------------|-----------------|
|--9----9--9----11-|-11--11--11--12--12--12-|-7----7--7---11--|
|--7----7--7----9--|--9---9---9--10--10--10-|-5----5--5----9--|
|--7----7--7----9--|--9---9---9--10--10--10-|-5----5--5----9--|

|------------------------|
|------------------------|
|------------------------|
|-11--11--11--12--12--12-|
|--9---9---9--10--10--10-|
|--9---9---9--10--10--10-|


|-------------------|-------------------------|----------------|
|-------------------|-------------------------|----------------|
|-------------------|-------------------------|----------------|
|-5-----5--5----11--|-11--11--11--12--12--12--|-4----4--4---11-|
|-3-----3--3-----9--|-9---9---9---10--10--10--|-2----2--2---9--|
|-3-----3--3-----9--|-9---9---9---10--10--10--|-2----2--2---9--|
                                                   
|------------------|
|------------------|
|------------------|
|-11-11-12-12-12---|
|-9--9--10-10-10---|
|-9--9--10-10-10---|
    

Guitar1 & 2(Dist)
|----------------|---------------------|-----------------|
|----------------|---------------------|-----------------|
|----------------|---------------------|-----------------|
|-9----9--9---11-|-11-11-11-12--12--12-|-7----7--7---11--|
|-7----7--7---9--|-9--9--9--10--10--10-|-5----5--5---9---|
|-7----7--7---9--|-9--9--9--10--10--10-|-5----5--5---9---|

|-------------------|
|-------------------|
|-------------------|
|-11-11-11-12-12----|
|-9--9--9--10-10----|
|-9--9--9--10-10----|

|------------------|-------------------|----------------|
|------------------|-------------------|----------------|
|------------------|-------------------|----------------|
|-5-----5--5----11-|-11-11-11-12-12-12-|-4----4--4----11|
|-3-----3--3----9--|-9--9--9--10-10-10-|-2----2--2----9-|
|-3-----3--3----9--|-9--9--9--10-10-10-|-2----2--2----9-|

|-------------------|
|-------------------|
|-------------------|
|-11-11-11-12-12----|
|-9--9--9--10-10----|
|-9--9--9--10-10----|

Repeat chorus x3


Outro=intro pt2 x2

			Later....
				    Spyd3r


Текст, аккорды и табулатура для песни "Stupid Girl", исполняет "Cold".
Используемые в песне аккорды можно найти в разделе Как брать аккорды. Аккорды для шестиструнной гитары. Другие песни можно найти на нашем сайте, воспользовавшись алфавитным указателем вверху страницы.


 
Ошибка в тексте? Выделите ошибку и нажмите Ctrl+Enter