-------------------------------------------------------------------------------
			Remedy - Cold
-------------------------------------------------------------------------------

Tabbed by: Geno
Email: [email protected]

Tuning: CGCFad (dropped d down 1 full step)

I decided to start out the new Cold album with the first track, an extremely
easy song.
Have fun!

Intro/second half of verse
Riff 1:
Gtr. 1 (doubled throughout) Strumming not shown
e|---------------|
B|------------*--|
G|---------------|
D|-5-0-1-5-3-----|
A|-5-0-1-5-3--*--|
E|-5-0-1-5-3-----|

Chorus:
Riff 2:
Gtr. 1 
e|-----------------|
B|-----------------|
G|-----------------|
D|-5-3-1-0-5-3-6-1-|
A|-5-3-1-0-5-3-6-1-|
E|-5-3-1-0-5-3-6-1-|

Riff 3:
Gtr. 2 (ton of modulation!!!) strumming not shown. Do not repeat first time, go to next line!
e|---------------------------------------------------|
B|-8~~--6~~~--8~~~--------8~~~--6~~~--9~~~---------*-|
G|------------------7~~~--------------------8~~~-----|
D|---------------------------------------------------|
A|-------------------------------------------------*-|
E|---------------------------------------------------|

Riff 4:
Play this not w/ random bends through first half of 2nd verse.
e|------|
B|------|
G|-7~~~-|
D|------|
A|------|
E|------|

Bridge:  Gtr. 1 plays Riff 1

Riff 5:
Gtr. 2
e|----------------------|
B|--8~~~11----11------*-|
G|---------8-----10~~---|
D|----------------------|
A|--------------------*-|
E|----------------------|

Solo:
Gtr. 3 (more modulation!!!!!)  This guitar uses a tremolo, and I don’t own a
guitar that has one, so I’ll do the best I can w/ my Les Paul. ^^^denotes
tremolo.  I have noted that you dip it to achieve what he does at the beginning.
Just listen and you shouldn’t have any problems.

e|--19-fade-17-dip 15--------------------------------------------------------|
B|--------------------15-------18--15-----/18-15-----/19-15-16-18-19-15-16-18|
G|-----------------------15^^^---------15--------15--------------------------|
D|---------------------------------------------------------------------------|
A|---------------------------------------------------------------------------|
E|---------------------------------------------------------------------------|

In the last chorus, if you listen very closely, you’ll hear Gtr. 3 repeating the
first part of the solo twice.  Just do it!

Part order:

Intro/verse
Riff 1 (4 times)
Tacet, bass plays, then Riff 1 (4 times)


Chorus:
Gtr. 1 Riff 2 (1 time)
Gtr. 2 Riff 3 (1 time)

Verse 2:
Gtr. 1 tacet, bass plays, then Riff 1 (4 times)
Gtr. 2 Riff 4

Chorus 2 and 3:
Gtr. 1 Riff 2 (2 times)
Gtr. 2 Riff 3 (2 times)

Bridge:

Gtr. 1 Riff 1 (4 times)
Gtr. 1 Riff 5 (4 times)

Solo:
Gtr. 3 solo (1 time)
Gtr. 1 tacet, bass plays, then Riff 1 (4 times)

Chorus 4 and 5:
Gtr. 1 Riff 2 (2 times)
Gtr. 2 Riff 3 (2 times)
Gtr. 3 as noted above.

Outro:
Gtr. 1 Riff 1 (1 time)

| /  slide up
|   slide down
| h  hammer-on
| p  pull-off
| ~  vibrato
| +  harmonic
| x  Mute note
===============================================================================


Текст, аккорды и табулатура для песни "Remedy", исполняет "Cold".
Используемые в песне аккорды можно найти в разделе Как брать аккорды. Аккорды для шестиструнной гитары. Другие песни можно найти на нашем сайте, воспользовавшись алфавитным указателем вверху страницы.


 
Ошибка в тексте? Выделите ошибку и нажмите Ctrl+Enter