Author/Artist: Cold
Title: Just Got Wicked
Album: 13 Ways to Bleed on Stage
Transcribed by: Carlos Acosta
Email: [email protected]

tuning: C F Bb Eb G C
Intro/verse: tap notes  

--------------------------------------|---------------------------------------
--------------------------------------|-----------------------17/1917--------
--------------------------------------|---------------------------------------
--------19-19-19-18-18-18-17-17-17--x3|-----17-17-17/19-17-17-----------------
-2-2----------------------------------|-2-2-----------------------------------
-0-0----------------------------------|-0-0-----------------------------------
 Chorus (guitar 1)                                                            

------------------------------------------------------------------------------
------------------------------------------------------------------------------
------------------------------------------------------------------------------
-----7----------------7-------------------------------------------------------
-2-5----------------5---------------------------------------------------------
------------------3-----------------------------------------------------------
 guitar 2                                                                     

------------------------------------------------------------------------------
------------------------------------------------------------------------------
------------------------------------------------------------------------------
------------------------------------------------------------------------------
-9-9--12-------5-5--7---------------------------------------------------------
-7-7--10-------3-3--5---------------------------------------------------------
 2nd verse (just play a few of these)                                         

------------------------------------------------------------------------------
------------------------------------------------------------------------------
------------------------------------------------------------------------------
------------------------------------------------------------------------------
-2-2--------------------------------------------------------------------------
-0-0--------------------------------------------------------------------------
 right before 2nd chorus              N.H....                                 

------------------------------------------------------------------------------
------------------------------------------------------------------------------
------------------------------------------------------------------------------
------------------------------------------------------------------------------
-2-2----2-2-2-xx--2-2---2-2-2-xx-2-2------------------------------------------
-0-0----0-0-0-xx--0-0---0-0-0-xx-0-0--3-3-3-3---------------------------------
 bridge                                                                       

------------------------------------------------------------------------------
------------------------------------------------------------------------------
------------------------------------------------------------------------------
------------------------------------------------------------------------------
-2-2--777-888-8/10-10---------------------------------------------------------
-0-0--555-666-6/8--8----------------------------------------------------------
 last chorus                                                                  

------------------------------------------------------------------------------
------------------------------------------------------------------------------
------------------------------------------------------------------------------
-----7--------7/97------7---------7/97--------------------------------------
-2-5--------5--------2-5---------5--------------------------------------------
----------3--------------------3----------------------------------------------
 guitar fill                                                                  

------------------------------------------------------------------------------
------------------------------------------------------------------------------
-4--7--14-----7--14-----------------------------------------------------------
------------------------------------------------------------------------------
-2--5--12-----5--12-----------------------------------------------------------
-----------3------------------------------------------------------------------


Текст, аккорды и табулатура для песни "Just Got Wicked", исполняет "Cold".
Используемые в песне аккорды можно найти в разделе Как брать аккорды. Аккорды для шестиструнной гитары. Другие песни можно найти на нашем сайте, воспользовавшись алфавитным указателем вверху страницы.


 
Ошибка в тексте? Выделите ошибку и нажмите Ctrl+Enter