Song: Just Got Wicked
Artist: Cold 
Album: 13 Ways to Bleed on Stage
Tabbed by: Steve ([email protected])

         intro & A- verse                    to(%) at 5th time                      
G---||-----------------------------------------|------------------------
D---||-----------------------------------------|------------------------
A---||*----------------------------------------|------------------------
E---||*----------------------------------------|------------------------
B---||---1--1--1/3--3--3--4--4--4--4--1--1--1--|------------------------
                                                                        

                                           5x (%)                        
G------------------------------------------||---------------------------
D------------------------------------------||---------------------------
A-----------------------------------------*||---------------------------
E--------------------------------1--1--1--*||---------------------------
B---1--1--1/3--3--3--4--4--4--4------------||-----1--1------------------
                                                                        

         B- chorus                                                       
G---||------------------------------------------|-----------------------
D---||------------------------------------------|-----------------------
A---||*-----------------------------------------|-----------------------
E---||*--3--3--3-----6--6--6--6--6--6--6--6--6--|-----------------------
B---||------------------------------------------|-----------------------
                                                                        

                                               5x                       
G----------------------------------------------||-----------------------
D----------------------------------------------||-----------------------
A---------------------------------------------*||-----------------------
E------------------1--1--1--1--1--1--1--1--1--*||-----------------------
B---4--4--4------------------------------------||-----------------------
                                                                        

     verse 7x                                                            
G--|----------------|---------------------------------------------------
D--|----------------|---------------------------------------------------
A--|------A---------|---------------------------------------------------
E--|----------------|----------------------------1--1--1----------------
B--|----------------|--1--1--1/3--3--3--4--4--4-------------------------
                                                                        

                                     3x       chorus 5x                   
G---||-------------------------------||--|-----------------|------------
D---||-------------------------------||--|-----------------|------------
A---||*-----------------------------*||--|--------B--------|------------
E---||*-----------------------------*||--|-----------------|------------
B---||---1--1-----1-----1-----1--1---||--|-----------------|------------
                                                                        

         C part - you are the love...      7x       chorus 8x             
G---||-------------------------------------||--|-----------------|------
D---||-------------------------------------||--|-----------------|------
A---||*-----------------------------------*||--|--------B--------|------
E---||*--------1--1--1--2--2--2--3--3--3--*||--|-----------------|------
B---||---1--1------------------------------||--|-----------------|------
                                                                        

    end                                                                 
G-----------------------------------------------------------------------
D-----------------------------------------------------------------------
A-----------------------------------------------------------------------
E---3-------------------------------------------------------------------
B-----------------------------------------------------------------------


Текст, аккорды и табулатура для песни "Just Got Wicked", исполняет "Cold".
Используемые в песне аккорды можно найти в разделе Как брать аккорды. Аккорды для шестиструнной гитары. Другие песни можно найти на нашем сайте, воспользовавшись алфавитным указателем вверху страницы.


 
Ошибка в тексте? Выделите ошибку и нажмите Ctrl+Enter