#----------------------------------PLEASE NOTE--------------------------------#
#This file is the author's own work and represents their interpretation of the#
#song. You may only use this file for private study, scholarship, or research.#
#-----------------------------------------------------------------------------#
#-- File created with Instab - http://www.pconline.com/~smcarey/instab.html --#
#-----------------------------------------------------------------------------#

Author/Artist: Cold
Title: It's All Good
Album: 13 Ways To Bleed On Stage
Transcribed by: Carlos Acosta
Email: [email protected]

tuning two whole steps down C F Bb Eb G C
intro: clean tone with what sounds like flanger to me but not sure.
if it is flanger its very little.
Intro/verse

-----------------------------|------------------------------------------------|
--------9-------------9------|-------5-----------5----------------------------|
------9---9---------9---9----|-----7---7-------7---7--------------------------|
---11-------11---11-------11-|---7-------7---7-------7------------------------|
-9-------------9-------------|-5-----------5-----------5----------------------|
-----------------------------|------------------------------------------------|
  Pre-Chorus (palm mute then gradually release palm mute)

------------------------------------------------------------------------------|
------------------------------------------------------------------------------|
------------------------------------------------------------------------------|
-7-7-7-7-7-7-7-7-7-7----------------------------------------------------------|
-5-5-5-5-5-5-5-5-5-5----------------------------------------------------------|
------------------------------------------------------------------------------|
  Chorus
------------------------------------------------------------------------------|
------------------------------------------------------------------------------|
------------------------------------------------------------------------------|
-----6b-6-------6b-6-------6b-6-----------------------------------------------|
-4-4------4-----------------------2-2--2-666----------------------------------|
------------5-5------5-4-4------4-0-0--0-444----------------------------------|
  Bridge (guitar 1)  not really sure on this one

------------------------------------------------------------------------------|
------------------------------------------------------------------------------|
----------9-------------------------------------------------------------------|
-11-12-11----11-12------------------------------------------------------------|
------------------------------------------------------------------------------|
------------------------------------------------------------------------------|
 (Guitar 2)   play the first three chords 8x each then 4x on the last two

-----|-----|------|------|----------------------------------------------------|
-----|-----|------|------|----------------------------------------------------|
-----|-----|------|------|----------------------------------------------------|
-----|-----|------|------|----------------------------------------------------|
-9---|-4---|-5----|12----|11--------------------------------------------------|
-7-x8|-2-x8|-3-x8-|10-x4-|9--x4-----------------------------------------------|
  thats it! end with the chorus


Текст, аккорды и табулатура для песни "Its All Good", исполняет "Cold".
Используемые в песне аккорды можно найти в разделе Как брать аккорды. Аккорды для шестиструнной гитары. Другие песни можно найти на нашем сайте, воспользовавшись алфавитным указателем вверху страницы.


 
Ошибка в тексте? Выделите ошибку и нажмите Ctrl+Enter