Bizarre
Straight C Tuning, tune down two whole steps

1=C   4=Bb
2=G   5=F
3=Eb  6=C

| ----7-7------8-8-------7-7-----7-7------6----
| -5--------5--------5---------5--------5------
| -----------------------------------------------
| -----------------------------------------------
| -----------------------------------------------
| -----------------------------------------------
  Intro/Verse  gtr. 1 (Kelly)

| -----------------
| -----------------
| -----------------
| -2-------3------
| -2-------3------
| -0-------1------
  Verse gtr. 2 (Terry)

| ----------------------------------------------------------
| ----------------------------------------------------------
| ----------------------------------------------------------
| ----------------------------------------------------------
| -7-7-7-7--3-3-3-3--5--5-5-5-10-10-10--9-9-9-9----
| -5-5-5-5--1-1-1-1--3--3-3-3--8--8--8--7-7-7-7----
  Chorus

| -------------------------------
| -------------------------------
| -12--12-12-12-12-12-12---
| -12--12-12-12-12-12-12---
| -10--10-10-10-10-10-10---
| -------------------------------
  Bridge gtr. 1 (Terry)

| -------------------------------------------------------------------------------
| --17-17-17/15-15-15-15/14-14-14-14/13-13-13-13h12--12~~~-----------------------
| -------------------------------------------------------------------------------
| -------------------------------------------------------------------------------
| -------------------------------------------------------------------------------
| -------------------------------------------------------------------------------
  Bridge gtr. 2 (Kelly)


Текст, аккорды и табулатура для песни "Bizarre", исполняет "Cold".
Используемые в песне аккорды можно найти в разделе Как брать аккорды. Аккорды для шестиструнной гитары. Другие песни можно найти на нашем сайте, воспользовавшись алфавитным указателем вверху страницы.


 
Ошибка в тексте? Выделите ошибку и нажмите Ctrl+Enter