Time Consumer 
Coheed & Cambria
Second Stage Turbine Blade
Drop D Tuning
Tabbed by Mark McGinn

I am almost 100% sure this is right

Key
/:Slide up
:Slide down
~:Let Ring

Intro Gtr. 1(00:00-00:51)Clean
E-----------5-----------5-------------5-----------5-
B---------------------------------------------------
G-2/5-7-5-----7-5-5-7-----7-5-7-5-7-----7-5-5-7-----
D---------0-----------0-------------0-----------0---
A---------------------------------------------------
D---------------------------------------------------

E-----------------------------------------------------------
B--10---10---11---11---11-----10----10----10----10----10----
G----10---10---10---10---10-----10----10----10----10----10--
D-8----8----8----8----8----8--------------------------------
A---------------------------10----10----10----10----10----10
D-----------------------------------------------------------

E--------8------------8------------8------------8---
B---10----10-----10----10-----10----10-----10----10-
G-----10-----------10-----------10-----------10-----
D-/8----8---8-/8----8---8-/8----8---8-/8----8---8/ 
A---------------------------------------------------
D---------------------------------------------------

E-------0-------------0-------------------------------
B--10----10-----10-----10----10~----------------------
G----10----10-----10-----10--10~----------------------
D-8----8-----8----------------0~----------------------
A-------------10----10-----10-0~----------------------
D-----------------------------0~----------------------

Intro Gtr. 2(00:35-00:51)Clean
E-13----13----13----13----13------17----17----17----17----17------
B---15----15----15----15----15--15--15----15----15----15----15--15
G-----14----14----14----14----14------17----17----17----17----17--
D-----------------------------------------------------------------
A-----------------------------------------------------------------
D-----------------------------------------------------------------

E---20----20----20----20----20-------20----20----20----20----20----
B-----17----17----17----17----17-------17----17----17----17----17--
G-19----19----19----19----19----19-17----17----17----17----17----17
D------------------------------------------------------------------
A------------------------------------------------------------------
D------------------------------------------------------------------

Intro pt.(00:58-01:12)Clean
E---0----
B---8--8-
G-10-10--
D--------
A--------
D--------

Verse Gtr. 1(01:13-02:02)Distortion
E------------------------------------------------------
B------------------------------------------------------
G------------------------------------------------------
D-1010-1010-1010-1010-1010-1010101010101010101010101010
A-8-8--8-8--8-8--8-8--8-8--8-8-8-7-7-7-8-8-8-7-7-7-7-10
D-8-8--8-8--8-8--8-8--8-8----------------------------10
                           ..........................

Verse Gtr. 2(1:38-1:41, 01:44-01:47)Distortion
E---------------------------------
B---------------------------------
G-----10----10----10----10----10--
D-7-8---7-8---7-8---7-8---7-8---8-
A---------------------------------
D---------------------------------

A little fill that takes you into chorus(02:00-02:02)Distortion
E-------------
B-------------
G----------12-
D-10-------x--
A--8/78/7-10-
D-------------

Chorus(2:03-2:27)Distortion
E---------------------------------------------------------
B---------------------------------------------------------
G-17171717171717179999101010101717171717171717999910101010
D-x-x-x-x-x-x-x-x-xxxxx-x-x-x-x-x-x-x-x-x-x-x-xxxxx-x-x-x-
A-151515151515151577778-8-8-8-151515151515151577778-8-8-8-
D---------------------------------------------------------

E----------------------------------------------------------------
B----------------------------------------------------------------
G-21212121/191919-17171717191919-21212121/191919-17171717191919
D-x-x-x-x--x-x-x--x-x-x-x--x-x-x--x-x-x-x--x-x-x--x-x-x-x--x-x-x-
A-19191919/171717-15151515171717-19191919/171717-15151515-171717
D----------------------------------------------------------------

A fill that takes you back to verse(2:27-2:29)Distortion
E-----------
B-----------
G-9~--------
D-x---------
A-7~--7h8p7-
D-----------

Interlude (03:15-03:31)Clean
E--------------------------------------------------------------------- 
B------------8----------------3--------------------------------------- 
G------10------10---/-----5-----5----7-7-7-7--9-9--5-5---------------- 
D---10----10------10/---5---5-----5--7-7-7-7--9-9--5-5---------------- 
A-8-----------------/-3--------------5-5-5-5--7-7--3-3---------------- 
D--------------------------------------------------------------------- 

Interlude (03:31-03:47)Distortion
E--------------------------------------------------------------------- 
B------------8----------------3--------------------------------------- 
G------10------10---/-----5-----5----7-7-7-7--9-9--5-5---------------- 
D---10----10------10/---5---5-----5--7-7-7-7--9-9--5-5---------------- 
A-8-----------------/-3--------------5-5-5-5--7-7--3-3---------------- 
D--------------------------------------------------------------------- 


Structure

Intro Gtr. 1(00:00-00:51)
Intro Gtr. 2(00:35-00:51)
Intro Pt. 2(00:58-01:12)
Verse Gtr. 1(01:13-02:02)
Verse Gtr. 2(01:38-01:41, 01:44-01:47)
Verse2Chorus Fill(02:00-02:02)
Chorus (02:03-02:27)
Chorus2Verse Fill(02:27-02:29)
Verse Gtr. 1(02:30-02:54)
Verse Gtr. 2(02:42-02:45, 02:43-02:45)
Verse2Chorus Fill(02:52-02:54)
Chorus (02:54-03:15)
Interlude Clean(03:15-03:31)
Interlude Dist.(03:31-03:47)
Intro Gtr. 1(03:53-04:15)
Intro Gtr. 2(04:00-04:12)
Intro Pt. 2(04:22-04:41)
Chorus (04-41:05:30)
Chorus2Verse Fill(05:30-End)

I'm in a band called Graduation Day, if you like Coheed you'll like us.
You check us out at stlpunk.com


Текст, аккорды и табулатура для песни "Time Consumer", исполняет "Coheed And Cambria".
Используемые в песне аккорды можно найти в разделе Как брать аккорды. Аккорды для шестиструнной гитары. Другие песни можно найти на нашем сайте, воспользовавшись алфавитным указателем вверху страницы.


 
Ошибка в тексте? Выделите ошибку и нажмите Ctrl+Enter