E |--------|
 B |--------|
 G#|--------|
 E ||-----0-------0-|-----0-------0-|
 B |--------|
 E ||-0-------0-----|-0-------0-----|
    |  |  |  |  |  |  |  |
 
 
 |-----0---2p0-----|-4p0-----5-------|-----0---2p0-----|-0-----0---------|
 |-0h2---0-------0-|-------0---------|-0h2---0-----2p0-|---4b------------|
 ------------------------|
 |-----0-------0---|-----0-------5---|-----0-------0---|-----0-------0---|
 ------------------------|
 |-0-------0-------|-0-------5-------|-0-------0-------|-0-------0-------|
   |_| |_| |_| |_|  |_| |_| |  |   |_| |_| |_| |_|  |_| |_| |  |  
 
 
 |-----0---2p0-----|-4p0-----5-------|-4p3h4-0-2p0-----|-0---------------|
 |-0h2---0-------0-|-------0-----------2p0-|---2p0-----------|
 ------------------|-------0---------|
 |-----0-------0---|-----0-------5---|-----0-------0---|-----0---0---0---|
 ------------------------|
 |-0-------0-------|-0-------5-------|-0-------0-------|-0-------0-------|
   |_| |_| |_| |_|  |_| |_| |  |   |_| |_| |_| |_|  |_| |_| |  | 
 
 
 ||-----0---4p0-----|-0-5-----4-------|-----0---4p0-----|-0-2-----0-------||
 ||-0h2-0---5p0-----|-0-7-----5-------|-0h2-0---5p0-----|-0-4-----0-------||
 ||-0h1---0-------0-------|-0h1---0-------0-|---3-----0-------||
 ||-----0-------0---|-----0-------0---|-----0-------0-----0---||
 -------|-----0-----------||
 ||-0-------0-------|-0-------0-------|-0-------0-------|-0-------0-------||
   |_| |_| |_| |_|  |_| |  |_| |   |_| |_| |_| |_|  |_| |  |  | 
 
 
 |-----0---2p0-----|-4p0-----5-------|-----0---2p0-----|-0-----0---------|
 |-0h2---0-------0-|-------0---------|-0h2---0-----2p0-|---4b------------|
 ------------------------|
 |-----0-------0---|-----0-------5---|-----0-------0---|-----0-------0---|
 ------------------------|
 |-0-------0-------|-0-------5-------|-0-------0-------|-0-------0-------|
   |_| |_| |_| |_|  |_| |_| |  |   |_| |_| |_| |_|  |_| |_| |  |  
 
 
 |-----0---2p0-----|-4p0-----5-------|-0---0-----------------|
 |-0h2---0-------0-|-------0---------|---4---4-2p0-----------|
 --------------1p0-------|
 |-----0-------0---|-----0-------5---|-----0-------0---|-2p0-4p2-0---0---|
 ------------------------|
 |-0-------0-------|-0-------5-------|-0-------0-------|-0-------0-------|
   |_| |_| |_| |_|  |_| |_| |  |   |_| |_| |_| |_|  |_| |_| |  | 
 
 
 ||-----0---4p0-----|-0-5-----4-------|-----0---4p0-----|-0-2-----0-------||
 ||-0h2-0---5p0-----|-0-7-----5-------|-0h2-0---5p0-----|-0-4-----0-------||
 ||-0h1---0-------0-------|-0h1---0-------0-|---3-----0-------||
 ||-----0-------0---|-----0-------0---|-----0-------0-----0---||
 -------|-----0-----------||
 ||-0-------0-------|-0-------0-------|-0-------0-------|-0-------0-------||
   |_| |_| |_| |_|  |_| |  |_| |   |_| |_| |_| |_|  |_| |  |  | 
 
 
 -------------||
 -------------||
 |------|---------1p0-----|---------1p0-----------||
 ||-----0-------0---|-----0-------2p0-|-----0-------2p0-|---------0---0---||
 ||---4---0---4---0-|---4---0---------|---4---0---------|-2p0-5p4---------||
 ||-7-------0-------|-0---------------|-7---------------------||
   |_| |_| |_| |_|  |_| |_| |_| |_|  |_| |_| |_| |_|  |_| |_| |  | 
 
 
 ||-0---0h2-4---4---|-7---7---9-------|-5h7--p5---------|---------0-------||
 -|-----9---7h9-5h7-|-----7-----------||
 ||---0-------0-----|---0-------------------|-6h8-------------||
 ||-----0-------0---|-----0-------5---|-----5-------5---|-----5-------0---||
 -------------||
 ||-0-------0-------|-0-------5-------|-5-------5-------|-5-------0-------||
   |_| |_| |_| |   |_| |  |  |   |_| |_| |_| |_|  |_| |  |  |  
 
 
 ||-----0---4p0-----|-0-5-----4-------|-----0---4p0-----|-0-2-----0-------||
 ||-0h2-0---5p0-----|-0-7-----5-------|-0h2-0---5p0-----|-0-4-----0-------||
 ||-0h1---0-------0-------|-0h1---0-------0-|---3-----0-------||
 ||-----0-------0---|-----0-------0---|-----0-------0-----0---||
 -------|-----0-----------||
 ||-0-------0-------|-0-------0-------|-0-------0-------|-0-------0-------||
   |_| |_| |_| |_|  |_| |  |_| |   |_| |_| |_| |_|  |_| |  |  | 
 
 
 |-----0---2p0-----|-4p0-----5-------|-----0---2p0-----|-0-----0---------|
 |-0h2---0-------0-|-------0---------|-0h2---0-----2p0-|---4b------------|
 ------------------------|
 |-----0-------0---|-----0-------5---|-----0-------0---|-----0-------0---|
 ------------------------|
 |-0-------0-------|-0-------5-------|-0-------0-------|-0-------0-------|
   |_| |_| |_| |_|  |_| |_| |  |   |_| |_| |_| |_|  |_| |_| |  |  
 
 
 |-----0---2p0-----|-4p0-----5-------|-4p3-4p0-2p0-----|-0---------------|
 |-0h2---0-------0-|-------0-----------2p0-|---2p0-----------|
 ------------------|-------0---------|
 |-----0-------0---|-----0-------5---|-----0-------0---|-----0---0---0---|
 ------------------------|
 |-0-------0-------|-0-------5-------|-0-------0-------|-0-------0-------|
   |_| |_| |_| |_|  |_| |_| |  |   |_| |_| |_| |_|  |_| |_| |  | 
 
 
 ||-----0---4p0-----|-0-5-----4-------|-----0---4p0-----|-0-2-----0-------||
 ||-0h2-0---5p0-----|-0-7-----5-------|-0h2-0---5p0-----|-0-4-----0-------||
 ||-0h1---0-------0-------|-0h1---0-------0-|---3-----0-------||
 ||-----0-------0---|-----0-------0---|-----0-------0-----0---||
 -------|-----0-----------||
 ||-0-------0-------|-0-------0-------|-0-------0-------|-0-------0-------||
   |_| |_| |_| |_|  |_| |  |_| |   |_| |_| |_| |_|  |_| |  |  | 
 
 
 |-----0-----0-----|-----0-----0-----|-----0-----0-----------|
 |---0-----0-----0-|---0-----0-----0-|---0-----0-----0-------|
 |-5-----------5---|-3-----------3---|-1-----------1---|-1p0-----0-------|
 |-------5---------|-------4---------|-------2---------|-----2p0-----0---|
 ------------------------|
 ------------------------|
   |_|_| |_|_| |_|  |_|_| |_|_| |_|  |_|_| |_|_| |_|  |_| |_| |  | 
 
 
 |-----0-----0-----|-----0-----0-----------|--------12.------||
 |---0-----0-----0-|---0-----0-----0-------|--------12.------||
 |-5-----------5---|-3-----------3---|-1p0-------------|--------12.------||
 |-------5---------|-------4---------|-----2p0---------|-0---------------||
 ------------|---------2p0-5p4-------||
 ------------------|-----0-----------||
   |_|_| |_|_| |_|  |_|_| |_|_| |_|  |_| |_| |_| |_|  |  |
 


 Great contribution Alessandro. I noticed one small mistake just from memory.
 
 |-----0---2p0-----|-4p0-----5-------|-----0---2p0-----|-0-----0---------|
 |-0h2---0-------0-|-------0---------|-0h2---0-----2p0-|---4b------------|
 ------------------------|
 |-----0-------0---|-----0-------5---|-----0-------0---|-----0-------0---|
 ------------------------|
 |-0-------0-------|-0-------5-------|-0-------0-------|-0-------0-------|
   |_| |_| |_| |_|  |_| |_| |  |   |_| |_| |_| |_|  |_| |_| |  |  
 
 
 Should be
 
 
 |-----0---2p0-----|-4p0-----5-------|-----0---2p0-----|-0-----0---------|
 |-0h2---0-------0-|-------0---------|-0h2---0-----2p0-|---4b------------|
 --------5---------------|
 |-----0-------0---|-----0-------5---|-----0-------0---|-----0-------0---|
 ------------------------|
 |-0-------0-------|-0-------5-------|-0-------0-------|-0-------0-------|
   |_| |_| |_| |_|  |_| |_| |  |   |_| |_| |_| |_|  |_| |_| |  |  
 
 
 I know its trivial but that's how bruce plays it.
 
 Bruce is my favourate acoustic guitar player, at least his 1960 1970's stuff. Do
 Have any other tab for his other stuff, ie: spring song, keep it open - you know,
 Stuff off of his Going To The Country album.
 
 Thanks a lot 
 Later,
 Steve.
 
 


Текст, аккорды и табулатура для песни "Sunwheel dance", исполняет "Cockburn Bruce".
Используемые в песне аккорды можно найти в разделе Как брать аккорды. Аккорды для шестиструнной гитары. Другие песни можно найти на нашем сайте, воспользовавшись алфавитным указателем вверху страницы.


 
Ошибка в тексте? Выделите ошибку и нажмите Ctrl+Enter