Artist- Coal Chamber
Song- Sway
Tab- By Jonathan Bissonnette

Tuning B E A D G B

Intro

|---0---0---0---0-|
|-3---3---3---3---|
|-----------------|
|-----------------|
|-----------------|
|-----------------| x12

The roof, the roof...

Intro- Part 2

|-------------|
|-------------|
|-------------|
|-------------|
|-5-2-5-2-5h6-|
|-3-0-3-0-3h4-| x12

Intro- part 3

|-------------|   *|------------|
|-------------|    |------------|
|-------------|    |------------|
|-------------|    |------------|
|-5-2-5-2-5h6-|    |-5-2-5-2-2--|
|-3-0-3-0-3h4-| x8 |-3-0-3-0-0--|
                           p.m..

                   *On the 4th time only

Verse
                         Second Gtr. at 5th time
|-----------------------|---0---0---0---0-|
|-----------------------|-3---3---3---3---|
|-----------------------|-----------------|
|-----------------------|-----------------|
|-----------------------|-----------------|
|-0-1-0-1-0-1-0-1-0-1-1-|-----------------| x8

Chorus

|-----------|
|-----------|
|-----------|
|-----------|
|-2-3-2-2-2-|
|-0-1-0-0-0-| x8

before second verse

|---0---0-|
|-3---3---|
|---------|
|---------|
|---------|
|---------|

Verse 2- Same as 1st verse

Chorus 2- Same as 1st chorus

Before verse part before bridge

Bridge

|-----------------------|
|-----------------------|
|-----------------------|
|-----------------------|
|-----------------------|
|-0-1-0-1-0-1-0-1-0-1-1-| x4

Bridge-Part 2

|--------|
|--------|
|------3-|
|--------|
|--3/1---|
|--------| x4

Bridge-Part 3

|----------------------------------------------------------|
|----------------------------------------------------------|
|----------------------------------------------------------|
|-4-4-4--7-7-7--4-4-4---------4-4-4--7-7-7--4-4-4----------|
|-2-2-2--5-5-5--2-2-2--3-2-3--2-2-2--5-5-5--2-2-2--3-------|
|----------------------1-0-1-----------------------1-------|

Verse 3- Same as all verses

Chorus 3- Same as all Chorus'

Outro

|-------------|
|-------------|
|-------------|
|-------------|
|-5-2-5-2-5h6-|
|-3-0-3-0-3h4-| x16



Текст, аккорды и табулатура для песни "Sway", исполняет "Coal Chamber".
Используемые в песне аккорды можно найти в разделе Как брать аккорды. Аккорды для шестиструнной гитары. Другие песни можно найти на нашем сайте, воспользовавшись алфавитным указателем вверху страницы.


 
Ошибка в тексте? Выделите ошибку и нажмите Ctrl+Enter