Clutch - Jesus On The Dashboard

h - hammer on 
p - pull off 
^ - bend string up
r - release bend
/ - slide up
 - slide down
~ - vibrato (sometimes written as v)
t - right hand tap
x - play 'note' with heavy damping




Tuning:EADG (Standard)
Tabbed by: Stephen Norman ([email protected])


[MAIN RIFF]
G|-------------------|-------------------|-------------------|
D|-------------------|-------------------|-------------------|
A|----5h7-5h8----8p7-|----5h7-5h8----8p7-|----5h7-5h8----8p7-|
E|--0----------0-----|--0----------0-----|--0----------0-----|

|----------------------|
|----------------------|
|----5h7-5-------------|
|--0-------7-0-3h45p43-|



[CHORUS]
G|---------------------|
D|---------------------|
A|---3-5-3--1--33------|
E|-0------0-------0-^3-|


[BRIDGE]
G|-----------------------|------------------------|
D|-----------------------|------------------------|
A|----3h55---3h55--3h55~-|---3h55---3h55---3h5----|
E|--0------0------0------|-0------0------0-----0~-|


Repeat riffs neccesary times, any corrections send them to my email.(listed above.)

:D


Текст, аккорды и табулатура для песни "Jesus On The Dashboard", исполняет "Clutch".
Используемые в песне аккорды можно найти в разделе Как брать аккорды. Аккорды для шестиструнной гитары. Другие песни можно найти на нашем сайте, воспользовавшись алфавитным указателем вверху страницы.


 
Ошибка в тексте? Выделите ошибку и нажмите Ctrl+Enter