Johan Sebastian Bach - Menuett
Submitted By: Viktor
EMail: [email protected]


[email protected]----------||
B|-3-----------0---1---3-----------|-------1---3---------------------------||
G|-----0---2---------------0---0---|-------------------------------0---0---||
D|---------------------------------|---------------------------------------||
A|---------------------------------|---------------------------------------||
E|---------------------------------|---------------------------------------||
                                           __________________________________
                                          | 1. 
E|----------------------------------------|--------------------------------||
B|-1---3---1---0-------0---1---0----------|-------------0-------0----------||
G|-----------------2---------------2---0--|-----0---2-------0-------2-----:||
D|----------------------------------------|-4------------------------------||
A|----------------------------------------|--------------------------------||
E|----------------------------------------|--------------------------------||
   ________________________________________
  | 2.
E||--------------------------------------||
B||-----0--------------------------------||
G||-2-------2---0-------0----------------||
D||-----------------4--------------------||
A||--------------------------------------||
E||--------------------------------------||


Текст, аккорды и табулатура для песни "Bach - Minuette", исполняет "Classical".
Используемые в песне аккорды можно найти в разделе Как брать аккорды. Аккорды для шестиструнной гитары. Другие песни можно найти на нашем сайте, воспользовавшись алфавитным указателем вверху страницы.


Слушать онлайн Minuet in G Major (Classical Wedding)


Robbins Island Music GroupMinuet in G Major (Classical Wedding) на Яндекс.Музыке


 
Ошибка в тексте? Выделите ошибку и нажмите Ctrl+Enter