song: White riot
author: The Clash
bass tabber: [email protected] (change b0ldra to boldra)
                                                                                
INTRO & RIT
---------|    |---------
---------|    |---------
---5---5-|(X3)|55-/-7---
555--5---|    |-------5-
                                                                                
BRIDGE
---2--(2)--2-2-----
-2---2---2-----2---
-------------------
-------------------
BRIDGE 1
-------------------------------
-----------------0---0---0-0---
-0---0---0-----0---0---0-----0-
-------------------------------
                                                                                
RIT
{
 --------------------------------
 553322--------------------------
 ------553322----33333333--------
 ------------5533--------33333333-->
                                                                                
 --------------------------------
 ----------223344----------------
 --22334455------33333333--------
 33----------------------33333333-->
                                                                                
 -------------------------------
 -------------------------------
 3333333333335-7-------------7-5
 ----------------555555555555----->
                                                                                
 ------------------------9-9-9-9-
 --------------------------------
 3333333333335-7-7-7-7-7---------
 --------------------------------
}


Текст, аккорды и табулатура для песни "White Riot", исполняет "Clash".
Используемые в песне аккорды можно найти в разделе Как брать аккорды. Аккорды для шестиструнной гитары. Другие песни можно найти на нашем сайте, воспользовавшись алфавитным указателем вверху страницы.


Слушать онлайн White Riot


The ClashWhite Riot на Яндекс.Музыке


 
Ошибка в тексте? Выделите ошибку и нажмите Ctrl+Enter