The Clash	
Im Not Down

Intro:
e|--5---4---4---2---4/55-4/55-5-3/44-3/44-4--4---2--|
B|--5---5---5---4---4/55-4/55-5-4/55-4/55-5--5---4--|
G|--6---4---6---4---5/66-5/66-6-3/44-3/44-4--6---4--|
D|--7---6---6---4---6/77-6/77-7-5/66-5/66-6--6---4--|
A|--------------------------------------------------|
E|--------------------------------------------------|

Intro 2
e|-------------------------------------------------|
B|-------------------------------------------------|
G|-------------------------------------------------|
D|-------------------------------------------------|
A|------------------------------5-5555-4-4444--77--|
E|--7-7777-5-5555-4-4444-2-2222-----------------0--|

Verse 1:
e|--5-5-55-55-4----------------|x2
B|--5-5-55-55-5----------------|
G|--6-6-66-66-4--6/7-6---9--7--|
D|--7-7-77-77-6----------------|
A|-----------------------------|
E|-----------------------------|

Chorus:
e|---------------3-44-3-44-4--2---2--|x2
B|--4/55-4/55-5--4/55-4/55-5--2---4--|
G|--5/66-5/66-6--3/44-3/44-4--2---4--|
D|--6/77-6/77-7--5/66-5/66-6--4---4--|
A|-----------------------------------|
E|-----------------------------------|

Intro 2

Verse 2:
e|--5-5-55-55-4---4---3--|x2
B|--5-5-55-55-5---5---5--|
G|--6-6-66-66-4---6---5--|
D|--7-7-77-77-6---6---5--|
A|-----------------------|
E|-----------------------|

Chorus
Intro 2

Bridge:
e|---------------5-5/9-----------------------------------------------------------------------|
B|---------------------12121212121210--------------------------------------------------------|
G|---7/-----9-11-------12121212121211-------7-7---9^-7-7------7--------------11-1414-11------|
D|-----11-x--x-11-----------------------7/9--9--------9---7/9---9-99---11/14------------14-11|
A|--7---x-7--9--x-------------------------------------------------99-------------------------|
E|--5---9-------9-------------------------------------------------77-------------------------|
                                                                       PM-------------------|

e|------------------------------------------------------------------------|
B|---------------------12121212121210-------------------------------------|
G|---7/-----9-11-------12121212121211-------7-7---9^-7-7------7-------99--|
D|-----11-x--x-11-----------------------7/9--9--------9---7/9---9-99--99--|
A|--7---x-7--9--x-------------------------------------------------99--77--|
E|--5---9-------9-------------------------------------------------77------|

Verse 1
Chorus
Intro 2

Outro:
e|----------------x8|----------|
B|--1010109---999---|--910910--|
G|--1111---11-999---|-11-------|
D|------------------|----------|
A|------------------|----------|
E|------------------|----------|

END


Any questions comments e-mail me [email protected]
thankyou


Текст, аккорды и табулатура для песни "Im Not Down", исполняет "Clash".
Используемые в песне аккорды можно найти в разделе Как брать аккорды. Аккорды для шестиструнной гитары. Другие песни можно найти на нашем сайте, воспользовавшись алфавитным указателем вверху страницы.


 
Ошибка в тексте? Выделите ошибку и нажмите Ctrl+Enter