*This file is the author's own work and represents their
 interpretation of the song. You may only use this file
 for private study, scholarship, or research.*

BRAND NEW CADILLAC
by The Clash from London Calling
BASS TAB
Tabbed by: Edgar Aguilera (Garlic)
Edgar 

Intro:
   only bass         drums+guitars
    4x                4x            
G|-|-----------------|-----------------|
D|4|-----------------|-----------------|
A|4|---------0-0-1-0-|---------0-0-1-0-|
E|-|-0-0-3-3---------|-0-0-3-3---------|


Verse: x5 times
    E x4              A x2              E x2
|G|-----------------|-----------------|-----------------|
|D|*---------------*|*--------0-0-1-0*|*---------------*|
A*--------0-0-1-0*|*0-0-3-3--------*|*--------0-0-1-0*|
E-0-0-3-3---------|-----------------|-0-0-3-3---------|

    B7                A                 E                 B
|G|-----------------|-----------------|-----------------|-----------------||
|D|-----------------|-----------------|-----------------|----------------*||
A-2-2-2-2-2-2-2-2-|-0---------------|---------0-0-1-0-|-2-2-2-2-2-2-2-2*||
E-----------------|-----------------|-0-0-3-3---------|-----------------||


End:
    E                 A
|G|-----------------|-----------------|
|D|*----------------|---------0-0-1-0*|
A*--------0-0-1-0-|-0-0-3-3--------*|
E-0-0-3-3---------|-----------------| x3
 
   E
|G|-----------------|
|D|*---------------*|
A*--------0-0-1-0*|
E-0-0-3-3---------| x4



Текст, аккорды и табулатура для песни "Brand New Cadillac", исполняет "Clash".
Используемые в песне аккорды можно найти в разделе Как брать аккорды. Аккорды для шестиструнной гитары. Другие песни можно найти на нашем сайте, воспользовавшись алфавитным указателем вверху страницы.


Слушать онлайн Brand New Cadillac


The ClashBrand New Cadillac на Яндекс.Музыке


 
Ошибка в тексте? Выделите ошибку и нажмите Ctrl+Enter