Song:Signe
Album:Eric Clapton unplugged
Tab by Crazy Guy

I worked my ass off on this, so go easy on me

]---------o-----o----------------o-----o-------------------o-----o------------------
]---2---o-o--2--1-------2-----o--o--2--2--o-------2-----o--o--2--2--o---------------
]---2---1----2----------2-----1-----2-----1-------2-----1-----2-----1---------------
]-----------------------------------------------------------------------------------
]-o---o--------------------o------------------------o-------------------------------
]-------------------o-o----------------------o-o------------------------o-o---------



]-----o-----o-----o-----o---]---------------o-----o---o--4----------2------------o---
]--2--2--o--o--2--2--o--o-2-]---------o--2--2--4------o------2---3--3---3--2--o--o---
]--2-----1-----2-----1----2-]----1--2----2-----4-----------3-----2------------1------
]---------------------------]--2-----------------------------------------------------
]---------------------------]--------------------------------------------------------
]---------------------------]--------------------------------------------------------



]-----------o--------------2--------------2-----------o-------------o-----o-----o----o-
]-3--2-o--2-2--2--o--------2-----o-2---3--3--3--2--o--o--o-------2--2--2--2--3--3--3-3-
]---------2---------2--3------3--------2-----2--2--1-------2-1---2-----2-----2-----2---
]----------------------2---------------------------------------------------------------
]--------------------------------------------------------------------------------------
]--------------------------------------------------------------------------------------



]----o---------------o-----o------o-----o-----o-----o-----o------------]-----o---------
]-3--3--o--------2---2--2--2--3---3--3--3--3--3--3--3--3--3--------o---]--3--3-----o---
]-1-------2-1----2------2-----2------2-----2-----2-----1-----1--2------]--1----1-2-----
]----------------------------------------------------------------------]---------------
]----------------------------------------------------------------------]---------------
]----------------------------------------------------------------------]---------------



]-----o--o--o-------2----2----------o---------------------4--4-----4--------2---2------
]--4--o--o--o--2--2---3--3--3--2--o-o-----------o---------5--5-----5--2--2----3-3--3-2-
]--------------2-----------------------2------------------------------2--2----2--------
]--------------------------------------------------------------------------------------
]--------------------------------------------------------------------------------------
]--------------------------------------------------------------------------------------



]----o------------o-----o-----o----o----o-----o-----o--------------o-----o------o-----o
]--o-o--o------2--2--2--2--3--3--3-3--3-3--3--3--3--3--o--------2--2--2--2---3--3--3--3
]--1------2-1--2-----2-----2-----2----2----2-----1--------2--1--2-----2------2-----2---
]--------------------------------------------------------------------------------------
]--------------------------------------------------------------------------------------
]--------------------------------------------------------------------------------------



]---o-----o-----o-------------------o------------------5-------------------------------
]-3-3--3--3--3--3---o-----------3---3--------o---------2-------------------------------
]-2----2-----1--------2--1------1------1--2--------------------------------------------
]--------------------------------------------------------------------------------------
]------------------------------------------------o-------------------------------------
]--------------------------------------------------------------------------------------


Текст, аккорды и табулатура для песни "Singe", исполняет "Clapton Eric".
Используемые в песне аккорды можно найти в разделе Как брать аккорды. Аккорды для шестиструнной гитары. Другие песни можно найти на нашем сайте, воспользовавшись алфавитным указателем вверху страницы.


Слушать онлайн Wonderful Tonight - (Tribute to Eric Clapton)


The Academy AllstarsWonderful Tonight - (Tribute to Eric Clapton) на Яндекс.Музыке


 
Ошибка в тексте? Выделите ошибку и нажмите Ctrl+Enter