#----------------------------------PLEASE NOTE---------------------------------#
#This file is the author's own work and represents their interpretation of the #
#song. You may only use this file for private study, scholarship, or research. #
#------------------------------------------------------------------------------#
Date: 11.03.2004
Tabbed by Peter Tuyp ([email protected])

Eric Clapton - Signe (unplugged)


Chords:
A	x02220
E	022100
B(add11)xx4440
C#m7	x46454
F#7	x42322
Bm7	x24232
E7sus4	0xx230
E7	020130
F#m	244222
A(addA) x02225

The note after the backslash in the chord is the bass-note.
For instance 'E/a' means you play an E-chord and an A-bassnote

Intro:
   A   E/a   A     E/a    A   E/a   A    E/a
e|---------0-----0---------------0-----0------|
B|---2---0-0-2---2---0-----2---0-0-2---2---0--|
G|---2---1---2-------1-----2---1---2-------1--|
D|--------------------------------------------|
A|-0---0-----0-----0-----0---0-----0-----0----|
E|--------------------------------------------|

   A   E/a   A      E/a    A   E/a   A     
e|---------0-----0---------------0-0----------|
B|---2---0-0-2---2---0-----2---0-0-2----------|
G|---2---1---2-------1-----2---1---2----------|
D|---------------------------------2----------|
A|-0---0-----0-----0-----0---0-----0----------|
E|--------------------------------------------|


Verse 1:
   E      A      B(add11)/a    
                        C#m7/g# F#7   Bm7           E     
e|------------0------0------4-------------2-------------0-|
B|------0-2---2----4----5---5-------2-3---3----3p2--0---0-|
G|--1h2---2--------4----4--------2h3--2--------2----1-----|
D|-2---------------4--------------------------------------|
A|--------0------0---------------4----2------2------------|
E|----------------------4------2--------------------0-----|

   E      A             F#7           Bm7           E                   
e|------------0-------------2-------------2-------------0-|
B|--------2---2----2p0------2-------2-3---3----3p2--0---0-|
G|--3p2p0-2-------------2h3-----3h4---2--------2----1-----|
D|----------------------2---------------------------------|
A|--------0------0--------------------2------2------------|
E|-0--------------------2------2--------------------0-----|


Chorus:
   E      A             E7sus4/f#     E7sus4        E7                  
e|------------0------0------0------0------0------0------0-|
B|---0----2---2----2-2--3---3----3-3--3---3----3-3--3---3-|
G|----2p1-2--------2----2--------2----2--------2----1-----|
D|--------------------------------------------------------|
A|--------0------0----------------------------------------|
E|-0--------------------2------2------0------0------0-----|

   E      A             E7sus4/f#     E7sus4        E7
e|------------0------0------0------0------0------0------0-|
B|---0----2---2----2-2--3---3----3-3--3---3----3-3--3---3-|
G|----2p1-2--------2----2--------2----2--------2----1-----|
D|--------------------------------------------------------|
A|--------0------0----------------------------------------|
E|-0--------------------2------2------0------0------0-----|


Verse 2:
   E      A      C#m7          F#7    Bm7           E     
e|------------0-------------4-------------2-------------0-|
B|------0-2---2--4h5----5---5-------2-3---3----3p2--0---0-|
G|--1h2---2------4------4-------3h4---2--------2----1-----|
D|-2------------------------------------------------------|
A|--------0------4------4-------------2------2------------|
E|-----------------------------2--------------------0-----|

   E      A             F#7           Bm7           E                   
e|------------0-------------2-------------2-------------0-|
B|--------2---2----2p0------2-------2-3---3----3p2--0---0-|
G|--3p2p0-2-----------2-2h3-----3h4---2--------2----1-----|
D|----------------------2---------------------------------|
A|--------0------0--------------------2------2------------|
E|-0--------------------2------2--------------------0-----|


Chorus:
   E      A             E7sus4/f#     E7sus4        E7                  
e|------------0------0------0------0------0------0------0-|
B|---0----2---2----2-2--3---3----3-3--3---3----3-3--3---3-|
G|----2p1-2--------2----2--------2----2--------2----1-----|
D|--------------------------------------------------------|
A|--------0------0----------------------------------------|
E|-0--------------------2------2------0------0------0-----|

   E      A             E7sus4/f#     E7sus4        E7
e|------------0------0------0------0------0------0------0-|
B|---0----2---2----2-2--3---3----3-3--3---3----3-3--3---3-|
G|----2p1-2--------2----2--------2----2--------2----1-----|
D|--------------------------------------------------------|
A|--------0------0----------------------------------------|
E|-0--------------------2------2------0------0------0-----|

 
Verse 3: 
   E      C#m7          F#m           Bm7             E                            
e|--------------------------2------2------2-------------0-|
B|------0-4h5----5---5--2---2----2-2--3---3-----3p2---0-0-|
G|--1h2---4------4---4--2--------2----2---------2-----1---|
D|-2------------------------------------------------------|
A|--------4------4---4----------------2-------2-----------|
E|----------------------2------2----------------------0---|
 
   E      C#m7          F#m           Bm7             E                            
e|--------------------------2------2------2-------------0-|
B|------0-4h5----5---5--2---2----2-2--3---3-----3p2---0-0-|
G|--1h2---4------4---4--2--------2----2---------2-----1---|
D|-2------------------------------------------------------|
A|--------4------4---4----------------2-------2-----------|
E|----------------------2------2----------------------0---|
 
   E         C#m7       F#m           Bm7             E                            
e|--------------------------2------2------2-------------0-|
B|------0----5---5---5--2---2----2-2--3---3-----3p2---0-0-|
G|--1h2------4---4---4--2--------2----2---------2-----1---|
D|-2------------------------------------------------------|
A|-----------4---4---4----------------2-------2-----------|
E|----------------------2------2----------------------0---|
  

Chorus:
   E      A             E7sus4/f#     E7sus4        E7                  
e|------------0------0------0------0------0------0------0-|
B|---0----2---2----2-2--3---3----3-3--3---3----3-3--3---3-|
G|----2p1-2--------2----2--------2----2--------2----1-----|
D|--------------------------------------------------------|
A|--------0------0----------------------------------------|
E|-0--------------------2------2------0------0------0-----|

   E      A             E7sus4/f#     E7sus4        E7
e|------------0------0------0------0------0------0------0-|
B|---0----2---2----2-2--3---3----3-3--3---3----3-3--3---3-|
G|----2p1-2--------2----2--------2----2--------2----1-----|
D|--------------------------------------------------------|
A|--------0------0----------------------------------------|
E|-0--------------------2------2------0------0------0-----|


Verse 4:
   E      A      B(add11)/a    
                        C#m7/g# F#7   Bm7           E        
e|------------0------0----4--------2------2-------------0-|
B|---0----2---2--4------5-5--------2--3---3----3p2--0---0-|
G|----2p1-2------4------4------2h3----2--------2----1-----|
D|---------------4----------------------------------------|
A|--------0-------------4-------------2------2------------|
E|-0---------------------------2--------------------0-----|

   E      A             F#7           Bm7           E                   
e|------------0-------------2-------------2-------------0-|
B|--------2---2----2p0------2-------2-3---3----3p2--0---0-|
G|--3p2p0-2-------------2h3-----3h4---2--------2----1-----|
D|----------------------2---------------------------------|
A|--------0------0--------------------2------2------------|
E|-0--------------------2------2--------------------0-----|


Chorus (3x):
   E      A             E7sus4/f#     E7sus4        E7                  
e|------------0------0------0------0------0------0------0-|
B|---0----2---2----2-2--3---3----3-3--3---3----3-3--3---3-|
G|----2p1-2--------2----2--------2----2--------2----1-----|
D|--------------------------------------------------------|
A|--------0------0----------------------------------------|
E|-0--------------------2------2------0------0------0-----|

   E      A             E7sus4/f#     E7sus4        E7
e|------------0------0------0------0------0------0------0-|
B|---0----2---2----2-2--3---3----3-3--3---3----3-3--3---3-|
G|----2p1-2--------2----2--------2----2--------2----1-----|
D|--------------------------------------------------------|
A|--------0------0----------------------------------------|
E|-0--------------------2------2------0------0------0-----|

   E      A             E7sus4/f#     E7sus4        E7                  
e|------------0------0------0------0------0------0------0-|
B|---0----2---2----2-2--3---3----3-3--3---3----3-3--3---3-|
G|----2p1-2--------2----2--------2----2--------2----1-----|
D|--------------------------------------------------------|
A|--------0------0----------------------------------------|
E|-0--------------------2------2------0------0------0-----|

   E      A             E7sus4/f#     E7sus4        E7
e|------------0------0------0------0------0------0------0-|
B|---0----2---2----2-2--3---3----3-3--3---3----3-3--3---3-|
G|----2p1-2--------2----2--------2----2--------2----1-----|
D|--------------------------------------------------------|
A|--------0------0----------------------------------------|
E|-0--------------------2------2------0------0------0-----|

   E      A             E7sus4/f#     E7sus4        E7                  
e|------------0------0------0------0------0------0------0-|
B|---0----2---2----2-2--3---3----3-3--3---3----3-3--3---3-|
G|----2p1-2--------2----2--------2----2--------2----1-----|
D|--------------------------------------------------------|
A|--------0------0----------------------------------------|
E|-0--------------------2------2------0------0------0-----|

   E      A             E7sus4/f#     E7sus4        E7
e|------------0------0------0------0------0------0------0-|
B|---0----2---2----2-2--3---3----3-3--3---3----3-3--3---3-|
G|----2p1-2--------2----2--------2----2--------2----1-----|
D|--------------------------------------------------------|
A|--------0------0----------------------------------------|
E|-0--------------------2------2------0------0------0-----|


Outro:
   E       A(addA)
e|--------------5-----------------------------------------|
B|---0---------2------------------------------------------|
G|-----2p1----2-------------------------------------------|
D|-----------2--------------------------------------------|
A|---------0----------------------------------------------|
E|-0------------------------------------------------------|


Текст, аккорды и табулатура для песни "Signe", исполняет "Clapton Eric".
Используемые в песне аккорды можно найти в разделе Как брать аккорды. Аккорды для шестиструнной гитары. Другие песни можно найти на нашем сайте, воспользовавшись алфавитным указателем вверху страницы.


Слушать онлайн Signe


Eric ClaptonSigne на Яндекс.Музыке


 
Ошибка в тексте? Выделите ошибку и нажмите Ctrl+Enter