-------------------------------------------------------------------------------
			Lonely Stranger - Eric Clapton
-------------------------------------------------------------------------------

Tabbed by: Chris Johnson
Tuning: Normal 
Notes: h = hammer

   E         F#m7  (slap strings)   F#  E                 
E|-----------------------x-----------------------0----------|
B|---------0-------------x-------------0---------0----------|
G|-----0h1-----2---------x-----------2----0h1---------------|
D|-----2-------2---------x-----------3----2-----------------|
A|-------------4---------x-----------3----------------------|
E|---0------------0------x----0--0--------0----0-----0------|

then just repeat it (there is sum crazy stuff b4 but its notr eally part of teh
song.. its just stuff he made up 4 shits)

If ur new (like me) and cant handle the one above (but u should b able to.. i can
play it, so it can't b that hard..) then u can play it like this.. it still
sounds about right :D

   E         F#m7  (slap strings)   F#  E                 
E|-----------------------x-----------------------0----------|
B|---------0-------------x-------------0---------0----------|
G|-----1-------2---------x-----------2----1-----------------|
D|-----2-------2---------x-----------3----2-----------------|
A|-----------------------x----------------------------------|
E|---0------------0------x----0--0-------------0-----0------|

Well thats all ive dun.. not much really but hey.. if sum1 could do the whole
song (propperly.. u know so it sounds right) that would b excellent... :D


Текст, аккорды и табулатура для песни "Lonely Stranger", исполняет "Clapton Eric".
Используемые в песне аккорды можно найти в разделе Как брать аккорды. Аккорды для шестиструнной гитары. Другие песни можно найти на нашем сайте, воспользовавшись алфавитным указателем вверху страницы.


Слушать онлайн Lonely Stranger


Eric ClaptonLonely Stranger на Яндекс.Музыке


 
Ошибка в тексте? Выделите ошибку и нажмите Ctrl+Enter