Eric Clapton
Layla (unplugged)
Unplugged Album

great song! ENJOY.

Intro:              
---------------|--------------------------------|---------------------------
---------------|--------------------------------|---------------------------
------------2--|---------------------3----------|---5----5----7------------2
------------0--|----0--------3-------3---3------|---5-5--5-5--7-7----------0
-----0---3-----|--------3----1-------1---1------|---3-3--3-3--5-5----0--3---
---------------|--------------------------------|---------------------------

-----------------------------|---------------------------------------------
---3-------------------------|-----------------------------3---------------
---2-----------------3-------|---5----------7--------------2-2-------------
---0-----------3-----3--3----|---5-----5----7--------------0-0-------------
-----------3---1-----1--1--X-|---3--0--3----5------0---3-------------------
-----------------------------|---------------------------------------------


-------------------------|---------------------|----------------------------
-3----3------------------|------------------5-6|5h6p5----5-6-5----5-6/8-----
-2----2---------3--------|-------7--------7----|------7--------7------------
-0----0---0--3--3--3--3/5|-5--5--7------7------|----------------------------
----------0--1--1--1--1/3|-3--3--5-------------|----------------------------
-------------------------|---------------------|----------------------------


------------------------------|-10-12-10h12p10----10------------------------
--6--8/10----8--10/13---10 13-|----------------13----13-10---10---10h12p10--
------------------------------|---------------------------12---12-----------
------------------------------|---------------------------------------------
------------------------------|---------------------------------------------
------------------------------|---------------------------------------------


---------------------|---------------------------|-------------------------
---------------5-6-5-|---------------------------|-------------------------
--9--10-9-7---7------|-7--5---7------------------|-------------------------
------------7--------|-----------75---3---3-3---|-------------------------
---------------------|-------------------5-----5-|-3--5-------0---3--------
---------------------|---------------------------|-------------------------


1. What'll you do when you get lonely,  No one waiting by your side?

--4---4-4---4---4---4-4---4-4---4-|---4-----2--0-------|-0------2-2---------
--5---5-5---4---4---4-4---4-4---4-|---5--1--3--0-0-2-3-|--------2-2----4-4--
--6---6-6---5---5---5-5---5-5---5-|---6--0--2--1-------|--------2-2----4-4--
--6---6-6---6---6---6-6---6-6---6-|---6--2--0--2-------|--------4-4----4-4--
4---4-------6---6---6-6---6-6---6-|-4----3-----2-------|--------4-4-2-------
--------------4-------------------|------------0-------|---2--2-----------0-


0--0------------------------|
0--0----------2---2---------|
1--1----------2---2---------|
2--2----------2---2---------|
2--2--0---------------------|
---------------------2------|


You've been runnin' and hidin' too long.  You know it's just your foolish pride?

--2--2-------------0-0----|------------------------|------------|-----------
--2--2------4--4---0-0--2-|---3--------------------|----------3-|---3-------
--2--2------4--4---1-1--2-|-2-2------3-------------|-7--------2-|-2-2-------
--4--4------4--4---2-2--2-|-0-0---3--3-3--3-5--5-5-|-7-7------0-|-0-0---3---
--4--4--2----------2-2--0-|-----3-1--1-1--1-3--3-3-|-5-5--0-3---|-----3-1---
-----------------0--------|------------------------|------------|-----------

  Layla
---------------------------|---------------------------------------
-----------------------3---|--3------------------------------3-----
3--------------7-------2---|2-2-----3--------------7---------2-----
3-3--3-5--5-5--7-7-----0---|0-0---3-3-3--3-5--5-5--7-7-------0-----
1-1--1-3--3-3--5-5-0-3-----|----3-1-1-1--1-3--3-3--5-5--0-3--------
---------------------------|---------------------------------------


--------------------|----------------------|------------------------------
----3---------------|----------------------|------------------------------
-2--2-----3---------|----------------------|------------------------------
-0--0-----3--3-3-3--|-5--5--5--------------|------------------------------
--------3-1--1-1-1--|-3--3--3-------0--3---|------------------------------
--------------------|----------------------|------------------------------

--4---4-4--4---4--4-4--4-4---4-|---4-----2--0-------|-0------2-2------------
--5---5-5--4---4--4-4--4-4---4-|---5--1--3--0-0-2-3-|--------2-2----4-4--4--
--6---6-6--5---5--5-5--5-5---5-|---6--0--2--1-------|--------2-2----4-4--4--
--6---6-6--6---6--6-6--6-6---6-|---6--2--0--2-------|--------4-4----4-4--4--
4---4------6---6--6-6--6-6---6-|-4----3-----2-------|--------4-4-2----------
-------------4-----------------|------------0-------|---2--2--------------0-

0--0------------------------|--2--2-----------------0-0----|
0--0----------2---2---------|--2--2-------4--4--4---0-0--2-|
1--1----------2---2---------|--2--2-------4--4--4---1-1--2-|
2--2----------2---2---------|--4--4-------4--4--4---2-2--2-|
2--2--0---------------------|--4--4--2--------------2-2--0-|
---------------------2------|---------------------0--------|

-----------------------------------|---------------------------------------|
--3------------------------------3-|--3------------------------------3-----|
2-2-----3--------------7---------2-|2-2-----3--------------7---------2-----|
0-0---3-3-3--3-5--5-5--7-7-------0-|0-0---3-3-3--3-5--5-5--7-7-------0-----|
----3-1-1-1--1-3--3-3--5-5--0-3----|----3-1-1-1--1-3--3-3--5-5--0-3--------|
-----------------------------------|---------------------------------------|

---------------------------------------|
--3------------------------------3-----|
2-2-----3--------------7---------2-----|
0-0---3-3-3--3-5--5-5--7-7-------0-----|
----3-1-1-1--1-3--3-3--5-5--0-3--------|
---------------------------------------|

--------------------|----------------------|------------------------------
----3---------------|----------------------|------------------------------
-2--2-----3---------|----------------------|------------------------------
-0--0-----3--3-3-3--|-5--5--5--------------|------------------------------
--------3-1--1-1-1--|-3--3--3-------0--3---|------------------------------
--------------------|----------------------|------------------------------

--4---4-4---4---4---4-4---4-4-----|---4-----2--0-----0---0----------------
--5---5-5---4---4---4-4---4-4-----|---5--1--3--0-------3------------------
--6---6-6---5---5---5-5---5-5-----|---6--0--2--1--0h1---------------------
--6---6-6---6---6---6-6---6-6-----|---6--2--0--2--------------------------
4---4-------6---6---6-6---6-6-----|-4----3-----2--------------------------
--------------4-------------------|------------0------------2-------------

--2-2----------0-0----------------|---2-2---------0-0---------------------
--2-2---4-4----0-0---2-2--2-------|---2-2---4-4---0-0--2------------------
--2-2---4-4----1-1---2-2--2-------|---2-2---4-4---1-1--2------------------
--4-4---4-4----2-2---2-2--2-------|---4-4---4-4---2-2--2------------------
--4-4-2--------2-2-0--------------|---4-4-2-------2-2--0------------------
2-----------0-----------------2---|-2-----------0-------------------------

------------------------------------|--------------------------------------|
--3-----------------------------3---|--3-----------------------------3-----|
2-2-----3-------------7---------2---|2-2-----3-------------7---------2-----|
0-0---3-3-3--3-5--5---7-7-------0---|0-0---3-3-3--3-5--5---7-7-------0-----|
----3-1-1-1--1-3--3---5-5--0-3------|----3-1-1-1--1-3--3---5-5--0-3--------|
------------------------------------|--------------------------------------|

------------------------------------|--------------------------------------|
--3-----------------------------3---|--3-----------------------------3-----|
2-2-----3-------------7---------2---|2-2-----3-------------7---------2-----|
0-0---3-3-3--3-5--5---7-7-------0---|0-0---3-3-3--3-5--5---7-7-------0-----|
----3-1-1-1--1-3--3---5-5--0-3------|----3-1-1-1--1-3--3---5-5--0-3--------|
------------------------------------|--------------------------------------|

------------------------------------|--------------------------------------|
--3-----------------------------3---|--3-----------------------------3-----|
2-2-----3-------------7---------2---|2-2-----3-------------7---------2-----|
0-0---3-3-3--3-5--5---7-7-------0---|0-0---3-3-3--3-5--5---7-7-------0-----|
----3-1-1-1--1-3--3---5-5--0-3------|----3-1-1-1--1-3--3---5-5--0-3--------|
------------------------------------|--------------------------------------|

------------------------------------|--------------------------------------|
--3-----------------------------3---|--3-3---------------------------------|
2-2-----3-------------7---------2---|2-2-2---------------------------------|
0-0---3-3-3--3-5--5---7-7-------0---|0-0-0--3--3-5-5----7--7---------------|
----3-1-1-1--1-3--3---5-5--0-3------|-------1--1-3-3----5--5---------------|
------------------------------------|--------------------------------------|


  Solo:
E|--------------------------------------------------------------------|
B|-10-10------10---10-10------10--------------------------------------|
G|-10-10------10---10-10------10--------------------------------------|
D|---------12--------------12--------12-10----------------------------|
A|-----------------------------------------12-11-10-8-10-8-------8----|
E|-----------------------------------------------------------10-------|
                                                                              
|----------------------------------------------------------------------|
|-----13-13------13-13------13-13------13-13------13-13------13-13-----|
|-14--14-14--14--14-14--14--14-14--14--14-14--14--14-14--14--14-14-----|
|----------------------------------------------------------------------|
|----------------------------------------------------------------------|
|----------------------------------------------------------------------|
                                                                              
|------------------------------------10-12-10h12p10----10-------------------
|---13-15----------------------10-13----------------13----13-10---10-10-10--
|---------12h13-12-10----10-12----------------------------------------------
|---------------------12----------------------------------------------------
|---------------------------------------------------------------------------
|---------------------------------------------------------------------------
                                                                              
|---------------------------------------------------------------------|
|-11--10----------------------------5-6-5h6p5-------------------------|
|----------12-10-9---7h9-7----5---7-----------7-5---------------------|
|-------------------------------7-----------------7-6-5-3-5-3---------|
|-------------------------------------------------------------5-------|
|---------------------------------------------------------------------|
                                                                 
|-13--10~------10-12---10h12-10------------------------------|
|-----------13--------------------13----10----10-------------|
|------------------------------------------12----12p10-------|
|-----------------------------------------------------12-----|
|------------------------------------------------------------|
|------------------------------------------------------------|
                                                                              
|-10----13-10----------15p13-15---15-13~----------12-13-15--13-15-x-|
|----10----------13----------------------------15-------------------|
|-------------------------------------------14----------------------|
|-------------------------------------------------------------------|
|-------------------------------------------------------------------|
|-------------------------------------------------------------------|
                                                                              
|-12-13----10-----------------------------------------------------|
|-------------13-10---------13----10----------10------------------|
|-------------------12---10----12----12-10----10----/9--/9--/9----|
|------------------------------------------12---------------------|
|-----------------------------------------------------------------|
|-----------------------------------------------------------------|            

|--------------------------------------||
|--------------------------------------||
|-9-10-7-----5-------------------------||
|--------------7-6---5-3---------------||
|--------------------------------------||
|--------------------------------------||

Out-Chorus:
-----------------------------------|---------------------------------------|
--3------------------------------3-|--3------------------------------3-----|
2-2-----3--------------7---------2-|2-2-----3--------------7---------2-----|
0-0---3-3-3--3-5--5-5--7-7-------0-|0-0---3-3-3--3-5--5-5--7-7-------0-----|
----3-1-1-1--1-3--3-3--5-5--0-3----|----3-1-1-1--1-3--3-3--5-5--0-3--------|
-----------------------------------|---------------------------------------|

-----------------------------------|---------------------------------------|
--3------------------------------3-|--3------------------------------3-----|
2-2-----3--------------7---------2-|2-2-----3--------------7---------2-----|
0-0---3-3-3--3-5--5-5--7-7-------0-|0-0---3-3-3--3-5--5-5--7-7-------0-----|
----3-1-1-1--1-3--3-3--5-5--0-3----|----3-1-1-1--1-3--3-3--5-5--0-3--------|
-----------------------------------|---------------------------------------|

-----------------------------------|---------------------------------------|
--3------------------------------3-|--3------------------------------3-----|
2-2-----3--------------7---------2-|2-2-----3--------------7---------2-----|
0-0---3-3-3--3-5--5-5--7-7-------0-|0-0---3-3-3--3-5--5-5--7-7-------0-----|
----3-1-1-1--1-3--3-3--5-5--0-3----|----3-1-1-1--1-3--3-3--5-5--0-3--------|
-----------------------------------|---------------------------------------|

---------------------------------------|-----------------|
--3------------------------------3-----|--3--------------|
2-2-----3--------------7---------2-----|2-2-----3--------|
0-0---3-3-3--3-5--5-5--7-7-------0-----|0-0---3-3-3---5--|
----3-1-1-1--1-3--3-3--5-5--0-3--------|----3-1-1-1---3--|
---------------------------------------|-----------------|


Outro:
--------------------------------------------------------------------||
-----5-6--5h6p5---5-6-8--6-5-6-5------------------------------------||
5-7-------------7-----------------7-5-------------------------------||
--------------------------------------7-6-5--3------5h7--5----------||
-----------------------------------------------5-3----------7-7-7---||
--------------------------------------------------------------------||


Текст, аккорды и табулатура для песни "Layla Unplugged", исполняет "Clapton Eric".
Используемые в песне аккорды можно найти в разделе Как брать аккорды. Аккорды для шестиструнной гитары. Другие песни можно найти на нашем сайте, воспользовавшись алфавитным указателем вверху страницы.


Слушать онлайн Layla


Eric ClaptonLayla на Яндекс.Музыке


 
Ошибка в тексте? Выделите ошибку и нажмите Ctrl+Enter