-------------------------------------------------------------------------------
Layla (Unplugged Acoustic) Solos – Eric Clapton
-------------------------------------------------------------------------------
Tabbed by: banzai_

hey, most of the layla tabs i found out there are pretty decent, except for the
intro solo and the middle solo, which really blow...so i tabbed out a version
which i think is pretty spot on, hope u guys enjoy it! sorry if the timing is a
little unclear, this is the first tab im posting online. {SC1 ROX}

Tuning: standard

Intro Solo (0:16)

e|----------------------------------------------------------------8--10--12--|
B|----------5-6--5h6p5---5-6-5---5-6--6/8--6-8—8/10--8--10/13--10------------|
G|------5-7------------7-------7---------------------------------------------|
D|----7----------------------------------------------------------------------|
A|---------------------------------------------------------------------------|
E|---------------------------------------------------------------------------|

e|----10h12p10--8-10-8-------------------------------------------------------|
B|---------------------10p8--10--86—6h8p6-----------------------------------|
G|------------------------------------------9-10—-97--7---------------------|
D|---------------------------------------------------------------------------|
A|---------------------------------------------------------------------------|
E|---------------------------------------------------------------------------|

e|---------------------------------------------------------------------------|
B|----------5-6--------------------------------------------------------------|
G|------5-7------7p5--7------------------------------------------------------|
D|----7-----------------5---------5--5--3-5--------------------------------|
A|--------------------------8p4--8-----------------0-3-----------------------|
E|---------------------------------------------------------------------------|


Solo at 2:56

e|----5-5-5-5-5-5---5---------------------------/8--8--8--8--8--8--8---------|
B|----6-6-6-6-6-6-6-6---------------------------/10-10-10-10-10-10-10--------|
G|----------------7---7p5----------------------------------------------------|
D|------------------------5-5--5p3--53----3-5-------------------------------|
A|---------------------------------------5-----------------------------------|
E|---------------------------------------------------------------------------|

e|----8--8--8--8--8--8---------------------------8-10-12--10h12p10--8-10-----|
B|----10-10-10-10-10-10---------8-----------8-10-----------------------------|
G|----------------------5-7--------10p7--10----------------------------------|
D|--------------------------5h7----------------------------------------------|
A|---------------------------------------------------------------------------|
E|---------------------------------------------------------------------------|

e|----8----------------------------------------------------------------------|
B|------10p8--10-10-10--11p10--10-8--------------------5-6--5h6p5------------|
G|----------------------------------10-9--7h9--7-7---7------------7-5--------|
D|-------------------------------------------------7------------------7-5----|
A|---------------------------------------------------------------------------|
E|---------------------------------------------------------------------------|

e|-----------------13-10-8-10-12--10h12p10--10-8----------10----13-10--------|
B|-----------------------------------------------10p8--10----10-------13-----|
G|---------------------------------------------------------------------------|
D|---------------------------------------------------------------------------|
A|----8-8--10p8--5-----------------------------------------------------------|
E|---------------------------------------------------------------------------|

e|----15----15-15-13----10-12-13-15--13-15--12-13-10-8-------------8---------|
B|-------13----------10--------------------------------10--108--6---8-10----|
G|---------------------------------------------------------------------------|
D|---------------------------------------------------------------------------|
A|---------------------------------------------------------------------------|
E|---------------------------------------------------------------------------|

e|---------------------------------------------------------------------------|
B|-------------10-10--107--10-10--------------------------------------------|
G|----12p10----10-9---9-8--10-9h10--7---------------------------------------|
D|----------12-------------------------10------------------------------------|
A|----------------------------------------10--10p8----8----------------------|
E|-------------------------------------------------10------------------------|


| /  slide up
|   slide down
| h  hammer-on
| p  pull-off
| ~  vibrato
| +  harmonic
| x  Mute note
===============================================================================


Текст, аккорды и табулатура для песни "Layla Acoustic", исполняет "Clapton Eric".
Используемые в песне аккорды можно найти в разделе Как брать аккорды. Аккорды для шестиструнной гитары. Другие песни можно найти на нашем сайте, воспользовавшись алфавитным указателем вверху страницы.


Слушать онлайн Layla


Eric Clapton Tribute BandLayla на Яндекс.Музыке


 
Ошибка в тексте? Выделите ошибку и нажмите Ctrl+Enter