Title: I'm Tore Down
Author: Eric Clapton
Album: From the Cradle
Tabbed by: Daniele Pelliccia
I'm tore down - bass tab  

This song sounds like a swing 8th blues. The bass line tabbed down is complete, 
with all variations.

Intro
|----------------------------55-33-------55-33----|
|----55-33-------33-11-------------55----------55-|
|----------55----------31-33----------33----------|
|-33----------11----------------------------------|

Verse 1

PART 1 X4
|----55-33----|
|----------55-|  
|-33----------|
|-------------|
PART 2 X2
|----1010-88------|
|------------1010-| 
|-88--------------|
|-----------------|

PART 1 X2

PART 3
|-------------|-------------|
|----55-33----|----33-11----|   
|----------55-|----------31-|
|-33----------|-11----------|

PART 4
|----55-33-------55-33-----|
|----------55----------55--|  
|-33----------33----------3|
|--------------------------|

Verse 2

No bass during PART 1 X4, then like Verse 1

Verse 3

No bass during PART 1 X8, then like Verse 1

Guitar Solo

PART 1 X4
PART 2 X2
PART 1 X2
PART 3

PART 5
|----55-33-------------33-|
|----------55----x3h55----|
|-33----------33----------|
|-------------------------|

PART 1 X3

PART 6
|-------------|
|-------------|
|-33-55-66-77-|
|-------------|

PART 2 X2
PART 1 X2
PART 3
PART 4

Verse 4  like Verse 3

Verse 5

PART 1 X3

PART 7
|-------------|
|-------------|
|-33-11-00----|
|----------33-|

PART 2 X2
PART 1 X2

PART 8
|---------------|------------------|
|----55-33------|------------------|
|----------55---|-------01-13--6-5-|
|-33----------1-|-13-35------------|

Suggestions and comments welcome.
I'm Daniele Pelliccia, you can communicate with me at
[email protected]


Текст, аккорды и табулатура для песни "Im Tore Down", исполняет "Clapton Eric".
Используемые в песне аккорды можно найти в разделе Как брать аккорды. Аккорды для шестиструнной гитары. Другие песни можно найти на нашем сайте, воспользовавшись алфавитным указателем вверху страницы.


 
Ошибка в тексте? Выделите ошибку и нажмите Ctrl+Enter