----------------------------
                       Eric Clapton-Bad Love
                    ----------------------------


Tabbed by:Steven Bryant (elix997)
Song:Bad Love
Artist:Eric Clapton
Album:Clapton Chronicles

Tuning: Drop D (DADGBE)


Chords:
   Bm7   E11    E     A    Bb    C     Am7   Gm7    Dm     G5
e---2-----2-----0-----0-----------------0------------1---------|
B---3-----3-----0-----2----3-----5------1-----3------3---------|
G---2-----2-----1-----2----3-----5------0-----3------2-----(7)-|
d---4-----2-----2-----2----3-----5------2-----3------0------5--|
A---2-----------2-----0----1-----3------0-----x-------------5--|
D---------------------------------------------5-------------5--|

Intro 1: (with fingers if easier)
(keyboard intro arranged for guitar)

e---------------------------------|
B--6--8-------------6--8----------|
G--5--7----5--7-----5--7----------|
D----------5--7-------------------|
A---------------------------------|
D--8--10---7--8-----8--10------0~-|

e---------------------------------|
B--6--8-------------6--5-------3~-|
G--5--7----5--7-----5--5-------2~-|
D----------5--7----------------0~-|
A----------------------3----------|
D--8--10---7--8-----5----------0~-|

Intro 2:
(guitar intro)(with wah)

e---------------------------------|
B---------------------------------|
G------------5--------------------|
D--------5/7---7/5~------3--5--3--|
A--3--5--------------3h5----------|
D---------------------------------|

e---------------------------------|
B---------------------------------|
G------------5--------------------|
D--------5/7---7/5--3--2--0h2p0---|
A--3--5---------------------------|
D---------------------------------|

e---------------------------------|
B---------------------------------|
G------------5--------------------|
D--------5/7---7/5~------3--5--3--|
A--3--5--------------3h5----------|
D---------------------------------|

e---------------------------------|
B---------------------------------|
G------------5--7-----------------|
D--------5/7------7/5--3--3~------|
A--3--5-------------------3~------|
D-------------------------5~------|

Intro 3 (also Chorus):
e-------------------------------------------|
B---------------13--------------------------|
G---------12/14----14/12--------10--12--10~-|
D--10--12-----------------10h12-------------|
A-------------------------------------------|
D-------------------------------------------|

e-------------------------------------------|
B---------------13--------------------------|
G---------12/14---14/12--10-9--7h9p7--------|
D--10--12-----------------------------------|
A-------------------------------------------|
D-------------------------------------------|

e-------------------------------------------|
B---------------13--------------------------|
G---------12/14----14/12--------10--12--10~-|
D--10--12-----------------10h12-------------|
A-------------------------------------------|
D-------------------------------------------|

e-------------------------------------------|
B---------------13--15----------------------|
G---------12/14--------14/12--10------------|
D--10--12------------------------12~--------|
A-------------------------------------------|
D-------------------------------------------|

Verses (lyrics change of course..):
Bm7                 E11      E        A
Oh what a feeling I get when I'm with you
Bm7                    E11  E         A
You take my heart into everything you do
       Bb       C           Am7    Bb
And it makes me sad for the lonely people
Gm7           C         Dm
I walked that road for so long
      Bb        C              Am7   Bb
Now I know that I'm one of the lucky people
Gm7          C        G5
Your love is making me strong

alright thats about it (except for the solo, which im working on...i'll send it once i 
it.)

please rate!!

Questions? Comments?
Hit Me Up
[email protected]
AIM- stevn53091


Текст, аккорды и табулатура для песни "Bad Love", исполняет "Clapton Eric".
Используемые в песне аккорды можно найти в разделе Как брать аккорды. Аккорды для шестиструнной гитары. Другие песни можно найти на нашем сайте, воспользовавшись алфавитным указателем вверху страницы.


Слушать онлайн Bad Love


Eric ClaptonBad Love на Яндекс.Музыке


 
Ошибка в тексте? Выделите ошибку и нажмите Ctrl+Enter