By Deron Miller 
From Volume 1 
Tab by John Houx with Deron Miller 

Tuning: 1 1/2 Steps Down (Low to High: Db Gb B E Ab Db) 

Chords 

 Em Bm E5/C D   Am Bm(II) C 
---------------------------- 
---------------------------- 
---------------------------- 
-5-----9----7---2--4------5- 
-7--5--7----9---3--5------7- 
-0--7--8----10--5--7------8- 

This song is based on backwards power chords, a lot of overdubs, and static up the wazoo. 

Em                           Bm 
The mirror doesn't look like them I guess it never will 

E5/C           D 
-------------------------- 
-------------------------- 
-------------------------- 
-9--9-9--9-7-----7---7--7- 
-7--7-7--7-7--10-9---9--9- 
-8--8-8--8-8--8-10--10-10- 
What would you say if I took a piece for me? 

Am                     Bm(II) 
Happiness is your best friend it doesn't appeal to me 

 C   D(II)    D5   D(II) 
--------------------- 
--------------------- 
--------------------- 
-5---4--------0----4- 
-7---5--------5----5- 
-8------------------- 

Have you ever seen me? 

As I talk it lets you down 
You're finally used to me 
But they never talk your way 

The universe is in your hands it doesn't appeal to me 
What would they say if I took a piece for me? 
Happiness is your best friend it doesn't appeal to me 
Have you ever seen me? 

As I talk it lets you down 
You're finally used to me 
But you never talk your way 

The mirror doesn't look like them I guess it never will 
What would you say if I took a piece for me? 
Happiness is your best friend it doesn't appeal to me 
Have you ever seen me?
 

© 2001 CKY and John Houx


Текст, аккорды и табулатура для песни "To All Of You", исполняет "Cky".
Используемые в песне аккорды можно найти в разделе Как брать аккорды. Аккорды для шестиструнной гитары. Другие песни можно найти на нашем сайте, воспользовавшись алфавитным указателем вверху страницы.


Слушать онлайн To All Of You


CKYTo All Of You на Яндекс.Музыке


 
Ошибка в тексте? Выделите ошибку и нажмите Ctrl+Enter