Shippensburg
Tabbed by Brandon Bell

--------------------------------6-6--------------------------------|
-----------5-5-----7-8---------------------------------------------|
------------------------------------------7-5----------------------|
-------------------------------------------------------------------|
-------------------------------------------------------------------|
-------------------------------------------------------------------|

--3-3--------------3------------------|
----------5----------------3-3------3-|
---------------------------------2----|
--------------------------------------|
--------------------------------------|
--------------------------------------|


This song is awesome!


Текст, аккорды и табулатура для песни "Shippensburg", исполняет "Cky".
Используемые в песне аккорды можно найти в разделе Как брать аккорды. Аккорды для шестиструнной гитары. Другие песни можно найти на нашем сайте, воспользовавшись алфавитным указателем вверху страницы.


Слушать онлайн Shippensburg


CKYShippensburg на Яндекс.Музыке


 
Ошибка в тексте? Выделите ошибку и нажмите Ctrl+Enter