This is a Fat song its quite an easy song to play just listen to the song to get the 
timing.

Tabbed By Dave 

E-----------------------------------
B-----------------------------------
G-7---7-7/97---7---7-7/97---------
D-7-7---------9-7-7---------9-7h5---
A---7-------------7---------------7-
E-----------------------------------

E--------------------------------------------------
B--------------------------------------------------
G-------------77-----------------------------------
D------7777h9--------777-9-7-55-4-7---4-2-4/5-4/-5-
A-5/9------------5/9-----------------5-------------
E--------------------------------------------------

E-----------------------------------
B-----------------------------------
G-7---7-7/97---7---7-7/97---------
D-7-7---------9-7-7---------9-7h5---
A---7-------------7---------------7-
E-----------------------------------

E--------------------------------------------------
B--------------------------------------------------
G-------------77-----------------777-9-888888888---
D------7777h9--------777-9-7-55--777-9-888888888---
A-5/9------------5/9-------------555-7-666666666---
E--------------------------------------------------
                       PM         ..    ........

E-----------------------------------------------------------
B-----------------------------------------------------------
G-7-9-7-6-7---7-9-7-6-7---9-11-9-8-9-------------9----------
D-----------99----------9------------11-11-11-12---12-11-9-7
A-----------------------------------------------------------
E-----------------------------------------------------------


Текст, аккорды и табулатура для песни "Santas Coming To Town", исполняет "Cky".
Используемые в песне аккорды можно найти в разделе Как брать аккорды. Аккорды для шестиструнной гитары. Другие песни можно найти на нашем сайте, воспользовавшись алфавитным указателем вверху страницы.


 
Ошибка в тексте? Выделите ошибку и нажмите Ctrl+Enter