-Cky's fisrt single off of I.D.R.- Heres the 100% correct version,
and believe me cause i watch them play it this way...

Intro/Verses
|-----------------------------------------------|
|-----------------------------------------------|
|--------------------4--66666-------------------|
|-22222~-------------4--66666--6-4--------------|
|-22222~-------------2--44444------4-4-----7-6--|
|-00000~-4-0-2-0-4-0-------------------4-7------|


Chorus
|---------------------------------------|
|---------------------------------------|
|---------------------------------------| x3
|-777777777777-99-77-666666666666-44-2--|
|-777777777777-99-77-666666666666-44-2--|
|-555555555555-77-55-444444444444-22-0--|
  ************ ** ** ************ ** *
after you played the chorus three times then play this
|---------------------------------------|
|---------------------------------------|
|---------------------------------------|
|-777777777777-99-77-666666666666-4444--|
|-777777777777-99-77-666666666666-4444--|
|-555555555555-77-55-444444444444-2222--|
  ************ ** ** ************ ****

solo
|------------------------------------------------------------------------
|------------------------------------------------------------------------
|-------------------------------------------4h6--------------------------
|-6-4-66-6-4-2-4-2-4-6-4-2-44-6-4-2-4-2-4-6-----66-6-4-2-4-2-4-6-4-2-44--
|-----44-------------------22-------------------44-------------------22--
|------------------------------------------------------------------------

|------------------------------------------------------------------|
|------------------------------------------------------------------|
|-----------------------------------------------------------4h6----|
|-6-4-2-4-2-----------22-6-4-2-4-2-4-6-4-2-44-6-4-2-4-2-4-6-----66-|
|-----------4-2-0-----00-------------------22-------------------44-|
|-----------------2h4----------------------------------------------|

|----------------------------------------------------------------|
|----------------------------------------------------------------|
|------------------------------------4h6-------------------------|
|-6-4-2-4-2-4-6-4-2-44-6-4-2-4-2-4-6-----66-6-4-2-4-2-4-6-4-2-44-|
|-------------------22-------------------44-------------------22-|
|----------------------------------------------------------------|

|-------------------------------------------------------------------|
|-------------------------------------------------------------------|
|---------------4h6-------------------------------------------------|
|-6-4-2-4-2-4-6-----66-6-4-2-4-2-4-6-4-2-44-----2-4-2-----------22--|
|-------------------44-------------------22-0-4-------4-2-0-----00--|
|-----------------------------------------------------------2-4-----|

|------------------------------------------------------------|
|------------------------------------------------------------|
|------------------------------------4h6~--------------------|
|-6-4-2-4-2-4-6-4-2-44-6-4-2-4-2-4-6------6-4~---------------|
|-------------------22-------------------------2-4~----------|
|---------------------------------------------------4-0-2h4--|


Thats it enjoi... :)
...Mark Davidson...


Текст, аккорды и табулатура для песни "Flesh Into Gear", исполняет "Cky".
Используемые в песне аккорды можно найти в разделе Как брать аккорды. Аккорды для шестиструнной гитары. Другие песни можно найти на нашем сайте, воспользовавшись алфавитным указателем вверху страницы.


Слушать онлайн Flesh Into Gear


CKYFlesh Into Gear на Яндекс.Музыке


 
Ошибка в тексте? Выделите ошибку и нажмите Ctrl+Enter