-------------------------------------------------------------------------------
			    Escape From Hellview - Cky
-------------------------------------------------------------------------------
Tabbed by:soulguitarist0o0
Email:[email protected]

Tuning:Whole step down
Intro/Chorus
|------------------------------------------------------------------------------|
|------------------------------------------------------------------------------|
|------------------------------------------------------------------------------|
|--------9------------9-10---------5-4--7--5---5-------------------------------|
|-----------7--------------------------------7---------------------------------|
|---0-0---------0-0---------0-0------------------------------------------------|
                                                                               repeat 3 times
                                                                                then start verse
|------------------------------------------------------------------------------|
|------------------------------------------------------------------------------|
|-----4----2-4----7----9----4-----7-8------------------------------------------|
|-------0------0----0----0----0---------------9--------------------------------|
|-----------------------------------------6------6-----------------------------|
|------------------------------------------------------------------------------|

verse 1
|-------------------------------------------------------------------------------|
|-------------------------------------------------------------------------------|
|-----12-11-----12-11-------------------12-11---11-12/14------------------------|
|---------------------12--------------------------------------------------------|
|-------------------------------------------------------------------------------|
|-0----------------------8------------------------------------------------------|

Pre-chorus
|-----------------------------------------------------------------------------|
|-----------------------------------------------------------------------------|
|-------------------------------------------5-55-55-55-5---4-44-4-----77------|
|-----------------------------4-2-----------5-55-55-55-5---4-44-4-----77--55--|
|--2--22-22-22-22-22-22-22-2------3-2-------3-33-33-33-3---2-22-2-----55--55--|
|--0--00-00-00-00-00-00-00-0---------------------------------33-then restart--|

chorus

verse 2
|---------------------------------------------------------------------------|
|---------------------------------------------------------------------------|
|----12-11-----12-11---------------------12-11--11-12/14--------------------|
|--------------------12-14--------------------------------------------------|
|---------------------------------------------------------------------------|
|---------------------------------------------------------------------------|

pre-chorus and chorus

Bridge
|---------------------------------------------------------------------------|
|---------------------------------------------------------------------------|
|---------------------------------------------------------------------------|play 6 times
|--------11-11--------11-12-----------------9-------------------------------|
|----8-8----------8-8-----------8-8--12-11------12-11-12--------------------|
|---------------------------------------------------------------------------|

pre-chorus then chorus outro


| /  slide up
|   slide down
===============================================================================


Текст, аккорды и табулатура для песни "Escape From Hellview", исполняет "Cky".
Используемые в песне аккорды можно найти в разделе Как брать аккорды. Аккорды для шестиструнной гитары. Другие песни можно найти на нашем сайте, воспользовавшись алфавитным указателем вверху страницы.


Слушать онлайн Escape From Hellview


CKYEscape From Hellview на Яндекс.Музыке


 
Ошибка в тексте? Выделите ошибку и нажмите Ctrl+Enter