I know this is right but your guitar has to be in drop D to play this song
right [if u do not no haw to tune in drop D you suck and can't play guitar]
i kno and i'm only 13


Escape from Hellview by CKY

Verse 1
|---------------------------------|
|---------------------------------|
|-----2-------2-3---------0-------|
|---0---0---0-------0-3-2---3-0-3-|
|---------------------------------|
|-0-------0-------0---------------|

---------------------------------|
---------------------------------|
-2---0-2-----------2-------0-2---|
---------------0-----------------|
---3-----3-3-3---3---3-3-4-----4-|
---------------------------------|


Verse 2
|---------------------------------|
|---------------------------------|
|-----2-------2-3---------0-------|
|---0---0---0-------0-3-2---3-0-3-|
|---------------------------------|
|-0-------0-------0---------------|

---------------------------------|
---------------------------------|
-2---0-2-----------2---------2---|
-----------0---------------------|
---3-----3---3-3-3---3-3-4-4---4-|
---------------------------------|

Verse 3
|---------------------------------|
|---------------------------------|
|-----2-------2-3---------0-------|
|---0---0---0-------0-3-2---3-0-3-|
|---------------------------------|
|-0-------0-------0---------------|

---------------------------------|
---------------------------------|
-2---0-2-----------2---------2---|
---------------0-----------------|
---3-----3-3-3---3---3-3-4-4---4-|
---------------------------------|



Vocalin 4/4 time
    ||||  ||  ||      ||||  ||  ||
C||: D5 | Bb5 A5 |%|%| D5 | C5 G/B5 |
 ||||  ||  ||    ||||   ||||  |||  |
| D5 | Bb5 A5 :|| D5 |%| Bb5 | A5 C5 |
 ||||   ||||   |||
| D5 |%| Bb5 | A5 } ||		|----LIK-C5-|
				|-----------|
				|-----------|
				|-----------|
				|--3--------|
				|-----3--0--|
Riff Chords	
||: D5 |%| C5 | C5 A/C#5 :||
Riff Modulation
|| ------------------------------- ||
|| ------------------------------- ||
||·-----3-------3-4---------1-----.||
||·---1---1---1-------1-4-3---4---.||
|| -----------------------------4- ||
|| -1-------1-------1------------- ||
		6X


Текст, аккорды и табулатура для песни "Escape From Hellview", исполняет "Cky".
Используемые в песне аккорды можно найти в разделе Как брать аккорды. Аккорды для шестиструнной гитары. Другие песни можно найти на нашем сайте, воспользовавшись алфавитным указателем вверху страницы.


Слушать онлайн Escape From Hellview


CKYEscape From Hellview на Яндекс.Музыке


 
Ошибка в тексте? Выделите ошибку и нажмите Ctrl+Enter